Cifra Club

One Wild Night

Bon Jovi

Cifra: Principal (violão e guitarra)
Tom: A#
(intro)

(riff)
E|------------------------------------------------------------|
B|------------------------------------------------------------|
G|-5-5-5------------------------------------------------------|
D|-5-5-5------------------------------------------------------|
A|-3-3-3-----3/6------3/6-------------3/6/3--------------3/3--|
E|------------------------------------3/6-----------------3/6-|

(slide)
E|----------------------------------------------------------------|
B|----------------------------------------------------------------|
G|12/17~17-15/17-17/15--12/17--17/20-17-20-17-20-17-20-17/15-12/17|
D|----------------------------------------------------------------|
A|----------------------------------------------------------------|
E|----------------------------------------------------------------|
                       "nananana..."  Refrão   "one wild one wild..."
E|--------------------|-------------|---------|----------------|
B|--------------------|-------------|---------|----------------|
G|--------------------|-------------|see intro|5---------------|
D|17/15-13/12-10/8-5/3|-------------|---------|5---------------|
A|--------------------|-------------|---------|3---------------|
E|--------------------|-------------|---------|----------------|

Cm
It's a hot night, the natives are restless
Bb                                                   Ab
We're sweating by the light of the moon
Cm
There's a voodoo mojo brewing at the gogo
Bb                                        Ab
That would knock a witch off her broom
Cm
We slither on in and shed our skin
Bb                                                    Ab
Make our way into the bump and the grind
Cm
I'm passing by, she gives me the eye
Gm
So I stop to give her a light
Cm           Bb         Ab
Na-na-na-na-na-na...alright!

(refrão 1)
                           Cm                   Ab
One wild night (blinded by the moonlight)
    Eb                    Bb
One wild night (24 hours of midnight)

Cm                                     Bb
One wild night (I stepped into the twilight zone
Ab
And she left my heart with vertigo)
Cm            Bb            Ab           Gm       F
One wild, one wild, one wild, one wild night

( Cm    Bb   Ab ) (2x)

                 Cm                                           Bb
Havin' as much fun as you can in your clothes
Ab
Margarita had me feelin' alright
Cm
Just might be I found religion
Bb                                                Ab
I've been on my knees for half of the night
Cm
I'm rolling the bones with Jimmy 'no dice'
Bb                                            Ab
Gonna take him for a couple weeks' pay
Cm
"Man, if you lose this roll I take your girlfriend home"
Gm
So I stopped
But you're not gonna believe who comes walking out

(refrão 2)
                              Cm                 Ab
One wild night (blinded by the moonlight)
Eb                          Bb
One wild night (24 hours of midnight)
                             Cm
One wild night (I stepped into the twilight zone
Bb                                       Ab
And she left my heart with vertigo)
                          Cm
One wild night (hey, c'est la vie)
 Ab                     Eb                      Bb
One wild night (welcome to the party)
                               Cm
One wild night (live is for the living so

Bb
You gotta
                  Ab
live it up, come on let's go)
Cm            Bb            Ab          G5          F5
One wild, one wild, one wild, one wild night

(solo)

(riff)
E|-----------------------------------------------------------|
B|-----------------------------------------------------------|
G|-5-5-5-----------------------------------------------------|
D|-5-5-5-----------------------------------------------------|
A|-3-3-3-----3/6------3/6-------------3/6/3--------------3/3-|
E|------------------------------------3/6-----------------3/6|

E|------------------8/11----8/11--------------8-----------|
B|-----------8/11----------------------8/11----------11/8-|
G|-5-/12--------------------------------------------------|
D|--------------------------------------------------------|
A|--------------------------------------------------------|
E|--------------------------------------------------------|

E|--------------------------------------------------------|
B|-8------------------------------------------------------|
G|----------10--8----7-----5------------------------------|
D|--------------------------------------5----3------------|
A|--------------------------------------------------------|
E|--------------------------------------------------------|

Cm                              Ab
Na-na-na-na-na-na...

(refrão 2)
Cm                 Ab
One wild night (blinded by the moonlight)
Eb                          Bb
One wild night (24 hours of midnight)
                             Cm
One wild night (I stepped into the twilight zone
Bb                                       Ab
And she left my heart with vertigo)
                          Cm
One wild night (hey, c'est la vie)
 Ab                     Eb                      Bb
One wild night (welcome to the party)
                               Cm
One wild night (live is for the living so

Bb
You gotta
                  Ab
live it up, come on let's go)
Cm            Bb            Ab          G5          F5
One wild, one wild, one wild, one wild night

(solo)

(riff)
E|-----------------------------------------------------------|
B|-----------------------------------------------------------|
G|-5-5-5-----------------------------------------------------|
D|-5-5-5-----------------------------------------------------|
A|-3-3-3-----3/6------3/6-------------3/6/3--------------3/3-|
E|------------------------------------3/6-----------------3/6|

E|------------------8/11----8/11--------------8-----------|
B|-----------8/11----------------------8/11----------11/8-|
G|-5-/12--------------------------------------------------|
D|--------------------------------------------------------|
A|--------------------------------------------------------|
E|--------------------------------------------------------|

E|--------------------------------------------------------|
B|-8------------------------------------------------------|
G|----------10--8----7-----5------------------------------|
D|--------------------------------------5----3------------|
A|--------------------------------------------------------|
E|--------------------------------------------------------|

Cm
One wild night, one wild night
                                                     Ab
One wild night (blinded by the moonlight)
                             Eb
One wild night (24 hours of midnight)
                            Bb
One wild night (I stepped into the twilight zoneAnd she left my heart with vertigo)
Cm           Bb            Ab           G         F
One wild, one wild, one wild, one wild night

E|--------------------|----|
B|--------------------|----|
G|--------------------|---5|
D|17/15-13/12-10/8-5/3|---5|
A|--------------------|---3|
E|--------------------|----|    
exibições 9.439
Acordes para:
    Composição: Jon Bon Jovi / Richie Sambora / Sérgio Bittencourt Colaboração e revisão:
    • Danilo Denadai
    • eduardo martins

    0 comentários

    mostrar mais comentários

    Conseguiu tocar?

    0 tocaram 0 ainda não

    Grave um vídeo tocando One Wild Night e mande pra gente!

    00:00 / 00:00
    outros vídeos desta música
    repetir qualidade Automático
    Outros vídeos desta música
    00:00 / 00:00
    Automático
    OK