Cifra Club

Aprenda

You Give Love A Bad Name

Bon Jovi

Tab de baixo: Estudio
(afinação 1/2 abaixo)

gb-----|-------|---------------|-----------|----------------|-------------------|----------------|-------------|
db-----|-------|---------------|-----------|----------------|--2----------------|----------------|-------------|
ab-----|-------|--4--0---2--4--|--2--2--4--|--0---2------2--|------4------2--3--|--4---0---2--4--|--2---2---4--|
eb-----|--16\--|---------------|-----------|----------4-----|----------4--------|----------------|-------------|

|---------|-------|--------------------------|-----------------------|--------------------------|
|---------|-------|--------------2--2--------|--------------2--2-----|--------------2--2--------|
|--0---2--|--(2)--|--4-----2--4--------4--2--|--4-----2--4--------4--|--4-----2--4--------4--2--|
|---------|-------|-----4--------------------|-----4-----------------|-----4--------------------|

                           angel's...                  what you...
                           paint your...               on your...
|-----------------------|---------------------------|-----------------------|----------------------------|
|--------------2--2-----|*--------------2--2--------|--------------2--2-----|----------2--2--2--2--------|
|--4-----2--4--------4--|*--4-----2--4--------4--2--|--4-----2--4--------4--|--(4)-----------------4--2--|
|-----4-----------------|------4--------------------|-----4-----------------|-------4--------------------|

|-----------------------|--------------------------|---------------------|--------------------------|
|--------------2--2----*|--------------------------|---------------------|--------------2--2--------|
|--4-----2--4--------4-*|--------------------------|--------------2---3--|--4-----2--4--------4--2--|
|-----4-----------------|--2--2--2--2--2--2--2--2--|--2--2--2--2---------|-----4--------------------|

|-------------------9--9-------|--------------------------|--------------------------|--------------------------|
|--9/11------9--11--------11\--|--------------------------|--------------------------|--------------------------|
|--------11--------------------|--2--2--2--2--2--2--2--2--|--2--2--2--2--2--4--------|--------------------------|
|------------------------------|--------------------------|--------------------4--3--|--2--2--2--2--2--2--2--2--|

                                    shot through...    you're...
|--------------------------------|------------------|-----------------------|----------------|--------4--5--6--6----|
|--------------------------------|------------------|-----------------------|----------------|--2-----------------6-|
|--------------------------------|--4---0---2--4----|--2---2---4--4---4--2--|--0---2------2--|-----4----------------|
|--4--4--4--4--4--4--4--4--4--4--|------------------|-----------------------|----------4-----|----------------------|
                                        2nd time to coda 1
                                        3rd time to coda 2
|----------------|--------------------|--------------------|----------------|---------|-------|-------|
|----------------|--------------------|--------------------|--2-------------|---------|-------|-------|
|--4---0---2--4--|--2---2---4---4--2--|--0---2------2------|------4---2--2--|--0---2--|--(2)--|--(2)--|
|----------------|--------------------|----------4---------|----------------|---------|-------|-------|

|--------------------------|-----------------------|----------------------------|-----------------------|
|--------------2--2--------|--------------2--2-----|--------------2--2----------|--------------2--2-----|
|--4-----2--4--------4--2--|--4-----2--4--------4--|--(4)-----2--4--------4--2--|--4-----2--4--------4--|
|-----4--------------------|-----4-----------------|-----4----------------------|-----4-----------------|

Coda 1                                      guitar solo
|------------------|---------|-------------|----------------|--------------------|----------------|
|--2---------------|---------|-------------|----------------|--------------------|----------------|
|-----4---4--2--2--|--0---2--|--(2)---11\--|--4---0---2--4--|--2---2---4------2--|--4---0---2--4--|
|------------------|---------|-------------|----------------|--------------4-----|----------------|

|------------------------|----------------|--------------------|---------|--------------------------|
|------------------------|----------------|--------------------|---------|--------------------------|
|--2--4--4/6---4------2--|--4---0---2--4--|--2---2---4---------|--4---0--|--------------------------|
|------------------4-----|----------------|--------------4--4--|---------|--4--4--4--4--4--4--4--4--|

|--------------------------|---------|----------------------------------------------------|
|--------------------------|---------|--11---11--11--11--11--11--11--11--11--11--11-------|
|--------------------------|---------|-----------------------------------------------11\--|
|--4--4--4--4--4--4--4--4--|---------|----------------------------------------------------|

Coda 2           play 4 times and fade
|---------------|-----------------------------|--------------------------|-----------------------------|
|--2------------|*----------------------------|--2--2--------------------|-----------------------------|
|-----4---4--2--|*-0--0--0--2--2--2--2--4--2--|--------4--4--4--4--2--2--|--0--0--0--2--2--2--2--2--4--|
|---------------|--------------------4--------|--------------------------|--------------------4--------|

|--------------------------|
|--2--2-------------------*|
|--------4--4--4--4--2--2-*|
|--------------------------|
Composição de Jon Bon Jovi / Richie Sambora / Sérgio Bittencourt
Colaboração e revisão:
  • valdir júnior
1.400 exibições

0 comentários

Mostrar mais comentários
00:00 / 00:00
outros vídeos desta música
repetir qualidade Automático
Outros vídeos desta música
00:00 / 00:00
Automático
Capítulos
  • Tocando a música
  • Dicas Iniciais / Equipamentos
  • Introdução 1 - Parte 1 de 2
  • Introdução 1 - Parte 2 de 2
  • Primeira Parte - Parte 1 de 3
  • Primeira Parte - Parte 2 de 3
  • Primeira Parte - Parte 3 de 3
  • Dicas 2
  • Refrão 1
  • Introdução 2
  • Dicas 3
  • Segunda Parte - Parte 1 de 3
  • Segunda Parte - Parte 2 de 3
  • Segunda Parte - Parte 3 de 3
  • Refrão 2
  • Dicas 4
  • Solo de Guitarra - Parte 1 de 2
  • Solo de Guitarra - Parte 2 de 2
  • Refrão Final - Parte 1 de 3
  • Refrão Final - Parte 2 de 3
  • Refrão Final - Parte 3 de 3
  • Encerramento
  • Ficha técnica / Erros de gravação

Cifra Club Pro

Aproveite o Cifra Club com benefícios exclusivos e sem anúncios
7 dias grátis
Cifra Club Pro
Aproveite o Cifra Club com benefícios exclusivos e sem anúncios
7 dias grátis
OK