Cifra Club

All Systems Go

Box Car Racer

Tab de baixo: Principal
Tabbed by Jared Lee of 2 Bad Neighbors
Submitted by : Bassjerk
Standard Tuning, EADG

Intro (After first guitar riff)

G:----------------
D:----------------
A:---4------------
E:-5--4---5-4-0---

Verse: (Bass comes in at the middle of the verse, listen to the song for timing)

G:------------------
D:------------------
A:-----4------------
E:--5---5--44-4-----

Chorus:
G:------------------------------------------
D:------------------------------------------
A:-33333-22222-00000------------------------
E:------------------------------1111111-----

Bridge (Part with wierd harmonics) Not sure if its right but it sounds ok

G:--------------------------
D:--------------------------
A:--------------------------
E:-555555555555--5555555555- etc

Outro:
G:------------------------
D:------------------------
A:-----4------------------
E:--5---4-5~(let ring)----

Order:
Intro x4
Verse x4
Chrorus x2
Intro x 2
Verse x4
(Short break)
Chorus x4
Bridge
Chorus x4
(guitar plays intro)
Intro: x1
exibições 439

0 comentários

mostrar mais comentários

Conseguiu tocar?

0 tocaram 0 ainda não

Grave um vídeo tocando All Systems Go e mande pra gente!

00:00 / 00:00
outros vídeos desta música
repetir qualidade Automático
Outros vídeos desta música
00:00 / 00:00
Automático
OK