Cifra Club

Letters To God 0

Box Car Racer

Cifra: Principal (violão e guitarra)
Tom: D
Intro:
e|------------------------|
B|------------------------|
G|------------------------|
D|-22222222-7/4-555555555-|
A|-22222222-7/4-555555555-|
E|-22222222-7/4-555555555-|(x2)

Verse:
       caught off guard...
e|-------------------------|
B|-------------------------|
G|-------------------------|
D|-2222222222--5555555555--|
A|-2222222222--5555555555--|
E|-2222222222--5555555555--|(x4)

Chorus :
  and I...
e|----------------------------|
B|----33333-------------------|
G|----44444-55555-------------|
D|----22222-55555-55555-77777-|
A|----22222-33333-55555-77777-|
E|----22222-------55555-77777-|

     can't you wait...
e|-------------------------|
B|-------------------------|
G|-44444-55555-------------|
D|-22222-55555-55555-77777-|
A|-22222-33333-55555-77777-|
E|-22222-------55555-77777-|


(during chorus)  Bridge:
e|--------------|-----------------------------|
B|--------------|-----------------------------|
G|----7-5----7--|-7---7-5---5-7---7-5-4-------|
D|-5-------5----|---5-----5-----5-------7-5-0-|
A|--------------|-----------------------------|
E|--------------|-----------------------------|

e|-------------------------------------------|
B|----------5--------------------------------|
G|-5-5-7-7----7-5---4---7-5---5-7---57-5-4---|
D|----------------57-5------5-----5--------7-|
A|-------------------------------------------|
E|-------------------------------------------|

e|------------------------|
B|------------------------|
G|---7----5-----7-----4-5-|
D|-5----5----55---5-7-----|
A|------------------------|
E|------------------------|

(dist. intro):
e|----------------------------|    |----------------------|
B|----------------------------|    |----------------------|
G|----------------------------|    |----------------------|
D|-2222-2222-2/4-5555-5555-55-| x2 |-2222222 2/4-55555555-|
A|-2222-2222-2/4-5555-5555-55-|    |-2222222 2/4-55555555-|
E|-2222-2222-2/4-5555-5555-55-|    |-2222222 2/4-55555555-|

Chorus(distorted)
  and I...
e|----------------------------|    
B|----------------------------|    
G|----------55555-------------|    
D|----22222-55555-55555-77777-|
A|----22222-33333-55555-77777-|    
E|----22222-------55555-77777-|(x4)    

e|----|
B|----|
G|----|
D|-2~-|
A|-2~-|
E|-2~-|


the order of the song goes:

intro x2
verse x4
chorus x1
intro x2
verse x4
chorus x1 (piano comes in)
bridge
dist. intro x1
dist. chorus x4
end

exibições 2.780
Acordes para:

    0 comentários

    mostrar mais comentários

    Conseguiu tocar?

    0 tocaram 0 ainda não

    Grave um vídeo tocando Letters To God 0 e mande pra gente!

    00:00 / 00:00
    outros vídeos desta música
    repetir qualidade Automático
    Outros vídeos desta música
    00:00 / 00:00
    Automático
    OK