Cifra Club

Aprenda

Confisco

Charlie Brown Jr.

Cifra: Principal (violão e guitarra)
Tom: A
 Riff 1

e|-------------------------------|
B|-------------------------------|
G|-------------------------------|
D|---7--4-4--4-7--4-4--4-7-------|
A|---7--4-4--4-7--4-4--4-7-------|
E|---5--2-2--2-5--2-2--2-5-------|


Pré Chorus ( guitarra 1 )

e|--------------------------------------------------|
B|--------------------------------------------------|
G|--4-4-4-4-4---7-7-7-7-7---------------9-9-9-9-9---|
D|--4-4-4-4-4---7-7-7-7-7---7-7-7-7-7---9-9-9-9-9---|
A|--2-2-2-2-2---5-5-5-5-5---7-7-7-7-7---7-7-7-7-7---|
E|--------------------------5-5-5-5-5---------------|

Pré Chorus ( guitarra 2 )

e|----------------------------------------------|
B|----------------------------------------------|
G|-----9/11-9-7-9-11-9-7------9/11-9-7-9-11-9---|
D|--9----------------------7--------------------|
A|----------------------------------------------|
E|----------------------------------------------|


Riff 1

Chorus:

e|--------------------------------------|
B|--------------------------------------|
G|-------8-8-8-8-8--------4-4-4-4-4-----|
D|--6-6--8-8-8-8-8---4-4--4-4-4-4-4-----|
A|--6-6--6-6-6-6-6---4-4--2-2-2-2-2-----|
E|--4-4--------------2-2----------------|

Riff 1

Pré Chorus

Riif 1

Chorus

Riff 1

últimos 2 acordes: A  F#





 
 Introdução: A  F#

     A                     F#
 Dez horas da manhã a campainha tocou  
      A                      F#
 oficial de justiça logo ele avistou
              A                        F#
  eu tenho aqui uma intimação o senhor saia daqui
            A                           F#
  e deixa que eu vou confiscar o que tiver aqui

          A                  F#
 Eu quero essa TV eu quero o som e isso aqui 
        A                       F#
  o que mais voce tiver, hoje vô até dormi aqui
               A                  F#  
  tu não me enrola não, tu faz orgia aqui 
             A                      F#       
 tenho até pena de você tu tem três horas pra sair
 
(enquanto uma guitarra faz esse riff ,uma outra faz as notas  B D A E )
e|----------------------------------------------|
B|--9-7-9/11-9-7---9-7-9/11-7-------------------|
G|----------------------------------------------|
D|----------------------------------------------|
A|----------------------------------------------|
E|----------------------------------------------|

                                 A      F#
 Eu tô aqui pra te mostrar o dia D
           A     F#
     O dia D
           A     F#  
     O dia D 
           A     F#
     O dia D          

        A            F#            A                  F#          
 Eu confisco, eu confisco esse é o meu trabalho eu confisco
        A            F#             A                   F# 
 Eu confisco, eu confisco eu sou da lei seu troxa eu confisco

G#                  D#
EU VOU PRA ONDE PRA ONDE EU DE VO IR     
F#                B
MONUMENTOS TEM UM CHEIRO QUE NINGUÉM AGUENTA 
G#               D#                      F#   B
MULTIDÃO DE SOLITÁRIOS QUE A CIDADE ALIMENTA 


OBS: a partir daqui você toca a  introdução e repete novamente a música toda. (A  F#)

       A            F#           A            F#
 Eu confisco,eu confisco, eu confisco, eu confisco
       A            F#           A            F#
 Eu confisco, eu confisco, eu confisco, eu confisco 
       A            F#           A            F#
 Eu confisco, eu confisco, eu confisco, eu confisco 
       A            F#           A            F#               F#
 Eu confisco, eu confisco, eu confisco, eu confisco....     Já era!!
Composição de Chorão
Colaboração e revisão:
  • Robson Pereira
159.479 exibições
    • ½ Tom
    • A
    • Bb
    • B
    • C
    • Db
    • D
    • Eb
    • E
    • F
    • F#
    • G
    • Ab
  • Adicionar à lista

    0 comentários

    Mostrar mais comentários

    Conseguiu tocar?

    7 Tocaram 0 Ainda não

    Grave um vídeo tocando Confisco e mande pra gente!

    00:00 / 00:00
    outros vídeos desta música
    repetir qualidade Automático
    Outros vídeos desta música
    00:00 / 00:00
    Automático
    OK