Cifra Club

Dançar Na Chuva

Fernandinho

Tab de baixo: Versão 3
exibições 1.419
G|-------7-5---------------------|
D|------------6-5-3-5-6-5-3-5----|
A|---5-5-------------------------|
E|-------------------------------|
B|-------------------------------|

D
Novo caminho para andar,
Novo sonho pra sonhar,
                       G
O deserto não é o meu lugar.
D
uma Nova vida Ele prometeu,
A todo aquele que Nele crê,
                        G
O mar a nossa frente se abrirá.

D              A
Nova criatura sou,
                    Bm
O velho homem já morreu,
                      A
Eu vou dançar naquela terra
            G
Que Ele prometeu
   F#      E   A
Eu vou, eu vou.  (2x)

Eu vou dançar na chuva...(2x)
G|-------------------------------------------------------------------------------------------|
D|-------------------------------------------------------------------------------------------|
A|--2--2--4--5--2--2--4--5--2--2--4--5--2--2--2--2--2--2--4--5--2--2--4--5--2--2--4--5--2----|
E|-------------------------------------------------------------------------------------------|
B|-------------------------------------------------------------------------------------------|

Solo:
G|-------------------------------------------------------------------------------------------|
D|------------7-9-------------7-9-------------7-9-------------7-9-------------7-9------------|
A|--------------------7-9-------------7-9-------------7-9-------------7-9-------------7-9----|
E|---7-7-7-7------7-7-----7-7-----7-7-----7-7-----7-7-----7-7-----7-7-----7-7-----7-7-----7--|
B|-------------------------------------------------------------------------------------------|

G|-------------------------------------------------------------------------------------------|
D|--9-9---9--8-8---8--7-7---7--6-6--10-9-----------------------------------------------------|
A|------9--------8--------7------------------------------------------------------------------|
E|-------------------------------------------------------------------------------------------|
B|-------------------------------------------------------------------------------------------|
Colaboração e revisão:
  • Ezequiel Aparecido
  • Victor Rodrigues

0 comentários

    mostrar mais comentários

    Conseguiu tocar?

    4tocaram0ainda não

    Grave um vídeo tocando Dançar Na Chuva e mande pra gente!

    00:00 / 00:00
    outros vídeos desta música
    repetirqualidadeautomática
    Outro vídeos desta música
      00:00 / 00:00
      automática
      OK