Cifra Club

Better

Guns N' Roses

Tab de baixo: Principal
Transposed to standard on a 5-string bass.


Verse
G||-----------------------------------------------------------------||
D||-----------------------------------------------------------------||
A||-----------------------------------------------------------------||
E||-5-5-5-5-5-5-5-5-5-5-5-5-5-5-5-5-----------------0-0-0-0---------||
B||---------------------------------2-2-2-2-2-2-2-2---------2-2-2-2-||

Pre-Chorus/Chorus/End
G||---------||-------------------||--------||
D||---------||*----------------*-||--------||
A||-0----2--||-------------------||--------||
E||---------||*--0--2--4--2-0--*-||-0------||
B||---------||-------------------||------3-||

Verse
G||-----------------------------------------------------------------||
D||-----------------------------------------------------------------||
A||-----------------------------------------------------------------||
E||-5-5-5-5-5-5-5-5-5-5-5-5-5-5-5-5-----------------0-0-0-0---------||
B||---------------------------------2-2-2-2-2-2-2-2---------2-2-2-2-||

Chorus
G||---------||-------------------||--------||
D||---------||*----------------*-||--------||
A||-0----2--||-------------------||--------||
E||---------||*--0--2--4--2-0--*-||-0------||
B||---------||-------------------||------3-||

First Solo
G||------------------------------------------------------------------||
D||------------------------------------------------------------------||
A||------------------------------------------------------------------||
E||------------------------------------------------------------------||
B||-3-3-3-4-4-4-5-5--3-3-3-4-4-5-5--3-3-3-4-4-4-5-5--3-3-3-4-4-4-5-5-||

G||------------------------------------------------------------------||
D||------------------------------------------------------------------||
A||------------------------------------------------------------------||
E||------------------------------------------------------------------||
B||-3-3-3-4-4-4-5-5--3-3-3-4-4-5-5--3-3-3-4-4-4-5-5--3-3-3-4-4-4-5-5-||

After Solo
G||-------------||
D||*-----------*||
A||-------------||
E||*-----------*||
B||-2--2--2--2--||

Bridge
G||-----------------------------------------------------||
D||*---------------------------------------------------*||
A||-----------------------------------------------------||
E||*-0---1-3-0--0--1-3p1-3p1-0--1-3p1-3p1-0--1-3p1-3p1-*||
B||-----------------------------------------------------||

Chorus
G||---------||-------------------||--------||
D||---------||*----------------*-||--------||
A||-0----2--||-------------------||--------||
E||---------||*--0--2--4--2-0--*-||-0------||
B||---------||-------------------||------3-||

Second Solo/Verse
G||-----------------------------------------------------------------||
D||-----------------------------------------------------------------||
A||-----------------------------------------------------------------||
E||-5-5-5-5-5-5-5-5-5-5-5-5-5-5-5-5-----------------0-0-0-0---------||
B||---------------------------------2-2-2-2-2-2-2-2---------2-2-2-2-||



Verse 4x
Pre-Chorus 1x
Chorus 3x
End 1x
Verse 4x
Pre-Chorus 1x
Chorus 3x
End 1x
First Solo 1x
After Solo 8x
Bridge 1x
Chorus 2x
Second Solo/Verse 7x



Mark

*

exibições 3.465
Composição: Axl Rose

0 comentários

mostrar mais comentários

Conseguiu tocar?

0 tocaram 0 ainda não

Grave um vídeo tocando Better e mande pra gente!

00:00 / 00:00
outros vídeos desta música
repetir qualidade Automático
Outros vídeos desta música
00:00 / 00:00
Automático
OK