Cifra Club

Don't Cry

Guns N' Roses

Cifra: Versão 5
exibições 160.389
Tom: C
Dedilhado da introdução

        Am            Dm             G              C
E |-------------0-------------1---------------3---------------------------
B|---------------1---------3---3---------------3-------------------------
G|-----------2-----2-----2-------2---------0-----0--------0-----0--------
D|---------2---------0-0-----------------0--------------2-----0----------
A|-------0-------------------------0---2------------0-3-----2-----3-2----
E|--3--------------------------------3-----------------------------------

   Am          Dm               G
E |-------0------------1----------------------------
B|---------1--------3---3--------------------------
G|-----2-----2----2-------2-----------0------------
D|---2--------0-0-------------------0-----------2--
A|-0-------------------------0----2-------------0--
E|------------------------------3--------2-3-4-----
Acordes para:
    Composição: Axl Rose / Izzy StradlinColaboração e revisão:
    • Adriano Diniz

    0 comentários

      mostrar mais comentários
      00:00 / 00:00
      outros vídeos desta música
      repetirqualidadeautomática
      Outro vídeos desta música
        00:00 / 00:00
        automática
        Capítulos
        • Tocando a música
        • Dicas Iniciais / Equipamentos
        • Solo - Parte 1 de 4 (52bpm)
        • Solo - Parte 2 de 4 (52bpm)
        • Solo - Parte 3 de 4 (52bpm)
        • Solo - Parte 4 de 4 (52bpm)
        • Solo - Parte 1 de 4 (42bpm)
        • Solo - Parte 2 de 4 (42bpm)
        • Solo - Parte 3 de 4 (42bpm)
        • Solo - Parte 4 de 4 (42bpm)
        • Ficha Técnica
        • Encerramento
        OK