Cifra Club

Aprenda

It's So Easy

Guns N' Roses

Tab de baixo: Versão 4
Afinação: Eb,Ab,Db,Gb,Bb,Eb

Intro (baixo)

Gb:|----------------------------------------------------------
Db:|-12h14-14-14-12h14-14-14-12h4-14-14-12h14-14-14-----------
Ab:|----------------------------------------------------------
Eb:|----------------------------------------------------------

Riff 1:

Guitarra 1:
Eb:|--------------------------
Bb:|--------------------------
Gb:|--------------------------
Db:|----------------4---x---4-
Ab:|-8-8h7-5--2-----2---x---2-
Eb:|-6-6h5-3--0---------------

Guitarra 2:
Eb:|--------------------------
Bb:|--------------------------
Gb:|--------------------------
Db:|----------------4---x---4-
Ab:|-8-8h7-5--2-----2---x---2-
Eb:|-6-6h5-3--0---------------

Riff 2
Guitarra 1

Eb:|-----------------------------
Bb:|-----------------------------
Gb:|----------------------4-4-4--
Db:|----------------------2-2-2--
Ab:|-7-7-5-7-(7)h8-5--2----------
Eb:|-5-5-3-5-(5)h6-3--0----------

Guitarra 2

Eb:|-55-3-5(5)h6-3--0---------
Bb:|-55-3-5(5)h6-3--0---------
Gb:|--------------------------
Db:|--------------------------
Ab:|--------------------------
Eb:|--------------------------

Riff 3
Guitarra 1

Eb:|-----------------------------------------------------------------------
Bb:|-----------------------------------------------------------------------
Gb:|-----------------------------------------0------0----0------0-----0---0
Db:|-----0----0---0-----0-------0-----0----4------4-----------2-----2------
Ab:|---0----0---------2------2----------2-------2----2------0-----0----0---
Eb:|-2----2-----2---3-----3-------3----------------------------------------

Guitarra 2

Eb:|-----------------------------------------------------------------------
Bb:|-----------------------------------------------------------------------
Gb:|-----------------------------------------0------0----0------0-----0---0
Db:|-----0----0---0-----0-------0-----0----4------4-----------2-----2------
Ab:|---0----0---------2------2----------2-------2----2------0-----0----0---
Eb:|-2----2-----2---3-----3-------3----------------------------------------

Riff 4

Guitarra 1

E||----------------------|----------------------||
B||----------------------|----------------------||
G||-------7----5----7----|--5-------------------||
D||--7----7----5----7----|--5----5----4---------||
A||--5-------------------|-------5----4----2----||
E||----------------------|-----------------0----||

Guitarra 2

E||----------------------|----------------------||
B||----------------------|----------------------||
G||-------7----5----7----|--5-------------------||
D||--7----7----5----7----|--5----5----4---------||
A||--5-------------------|-------5----4----2----||
E||----------------------|-----------------0----||

Solo 1:

D#||-----------------------------|--12-----------------------|
A#||--17b----17~----17b----15----|--------15----12-----------|
F#||----------------17b----------|--------------------14b----|
C#||-----------------------------|---------------------------|
G#||-----------------------------|---------------------------|
D#||-----------------------------|---------------------------|

---------------------------|--------------------------|
---------------12----------|--------------------------|
--12h----14----------12----|--------------12----14----|
---------------------------|--14----14----------------|
---------------------------|--------------------------|
---------------------------|--------------------------|
  
--------------------------|--------------------------|
--12----------12----------|--12----------------12----|
--------15----------15----|--------15----14----------|
--------------------------|--------------------------|
--------------------------|--------------------------|
--------------------------|--------------------------|
     
---------------------------|----------------------------|---------||
--------------15----14b----|--14b----14b----------------|--15b----||
--12-----------------------|----------------12----------|---------||
--------14-----------------|----------------------14----|---------||
---------------------------|----------------------------|---------||
---------------------------|----------------------------|---------||

Guitarra 2:

Eb:|--------------------------
Bb:|--------------------------
Gb:|--------------------------
Db:|----------------4---x---4-
Ab:|-8-8h7-5--2-----2---x---2-
Eb:|-6-6h5-3--0---------------

Solo 2:

D#||--15----12----------------|--------0---------------|
A#||--------------15~---------|-------------3b---------|
F#||--------------14----------|--2~--------------------|
C#||--------------------------|-------------------2----|
G#||--------------------------|------------------------|
D#||--------------------------|------------------------|

------------------------|-------------------------|------------------------|
------------------------|-------------------------|------------------------|
------------------------|-------------------------|------------------------|
--2----5b---------------|-------------------------|-------------------5----|
------------------------|-------------------------|-------5b----7b---------|
-------------5b---------|--<>3~----3----5----3----|--0---------------------|

                              PM                                      
   
----------------------|----------------------|-----------------------|
----------------------|----------------------|-----------------------|
----------------------|----------------------|-----------------------|
----------------------|----------------------|--7h----8----7----5----|
--7----7---------7----|--7---------5----7----|-----------------------|
----------------------|-------7--------------|-----------------------|
   
----------------------|-----------------------|------------------------|
----------------------|-----------------------|------------------------|
----------------------|-----------------------|--7h~----9----9----9----|
----------------------|--5----7----7s----9----|------------------------|
--7----5----5----7----|-----------------------|------------------------|
----------------------|-----------------------|------------------------|

-----------------------|---------------------------|--------------------12----|
-----------------8b----|--------12h----15----------|--------15----12----------|
-------7----9----------|--14-----------------12----|--14----------------------|
--9--------------------|---------------------------|--------------------------|
-----------------------|---------------------------|--------------------------|
-----------------------|---------------------------|--------------------------|
   
---------------------------|-------------------------|
--15----14----14h----15----|--14----12---------------|
---------------------------|--------------14----L----|
---------------------------|-------------------------|
---------------------------|-------------------------|
---------------------------|-------------------------|

--------------------------|---------------------------|
--------------------------|---------------------------|
--14----------14-----L----|--13h----14----------------|
--------14----------------|---------------14----12----|
--------------------------|---------------------------|
--------------------------|---------------------------|
     
--------------------------------||
--14----12----------------------||
--------------14----12----------||
--------------------------14/---||
--------------------------------||
--------------------------------||

Riff 4

Eb:|-----------------------------
Bb:|-----------------------------
Gb:|-----------------------------
Db:|------8-7-5----------9-------
Ab:|------------7--------7-------
Eb:|--------------6-5-0----------
Composição de Guns N' Roses / West Arkeen
Colaboração e revisão:
  • Pedro
236 exibições

0 comentários

Mostrar mais comentários

Conseguiu tocar?

0 Tocaram 0 Ainda não

Grave um vídeo tocando It's So Easy e mande pra gente!

00:00 / 00:00
outros vídeos desta música
repetir qualidade Automático
Outros vídeos desta música
00:00 / 00:00
Automático
OK