Cifra Club

Aprenda

Whos Crying Now Solo

Journey

Cifra: Principal (violão e guitarra)
Tom: C
Tabbed by:gabe

this is pretty mutch the same thing as the other one, but i think mine is easier to play.

Tuning:

e|12-15--15--15--15----------------------------------------------------------|
B|-----15--13--12------------------------------------------------------------|
G|---------------------------------------------------------------------------|
D|---------------------------------------------------------------------------|
A|---------------------------------------------------------------------------|
E|---------------------------------------------------------------------------|

do that twice, then on the third time do this, and if you have a whammy bar use it for
last note or if not bend it. thats what i used the squigley line for.

e|-12-15--15--15-------------------------------------------------------------|
B|------15--13---12-10-12~---------------------------------------------------|
G|---------------------------------------------------------------------------|
D|---------------------------------------------------------------------------|
A|---------------------------------------------------------------------------|
E|---------------------------------------------------------------------------|
        this time theres a bit of a twist, sounds cool. do this twice, then do the thing
the squigley line again

e|-12-15-15--15-17-----------------------------------------------------------|
B|------15-13----------------------------------------------------------------|
G|---------------------------------------------------------------------------|
D|---------------------------------------------------------------------------|
A|---------------------------------------------------------------------------|
E|---------------------------------------------------------------------------|
        then, bust out into this awesome solo, but play it cool like blues style cause 
songs kinda mellow-ish
i just got this from the other solo tab, i couldnt find any easier way to play this.
E|--------------------------------------------------------------------------|
B|--------------------------------------------------------------------------|
G|-12-14-14-14----14-12------------------------------------14-16-14----14---|
D|----------------------12----12-14-------------12---14-17----------17------|
A|-------------------------15-------15-12---15------------------------------|
E|--------------------------------------------------------------------------|


E|-------------------------17----19-19----20--15-17-17-15-17-19-17-15-17-19-|
B|-------15-17-15-------17----17--------------------------------------------|
G|-16-17----------17-14-----------------------------------------------------|
D|--------------------------------------------------------------------------|
A|--------------------------------------------------------------------------|
E|--------------------------------------------------------------------------|


E|-17-15----------15-17-17-15-17-20-15-17-17-15-----------------------------|
B|-------17-------------------------------------17-17-----15-17-18-17-15-15-|
G|--------------------------------------------------------------------------|
D|--------------------------------------------------------------------------|
A|--------------------------------------------------------------------------|
E|--------------------------------------------------------------------------|


E|--------------------------------------------------------------------------|
B|-15-17-15-----------------------------------------------------------------|
G|----------17-16-14-16----17-16-14----14-16--------------------------------|
D|----------------------17----------17-------14-14--------------------------|
A|--------------------------------------------------------------------------|
E|--------------------------------------------------------------------------|
          then do this part again, but theres a bit of a cool fill the second time
e|-12-15--15--15--15-12-15--15--17-15--13-12-15--15-15-----------------------|
B|------15--13--12--------15--13---------------15--13-12-10-12~--------------|
G|---------------------------------------------------------------------------|
D|---------------------------------------------------------------------------|
A|---------------------------------------------------------------------------|
E|---------------------------------------------------------------------------|


thats about it. just repeat the first couple lines before the awesome solo untill fade, 
you can throw in the fill thing it sounds cool either way. i tried to tab the rest of 
song, but
barley any guitar a couple notes here and there but its hard enough to here it without
to tab it. so anything to say put it in the comments
===============================================================================
1.065 exibições
    • ½ Tom
    • A
    • Bb
    • B
    • C
    • Db
    • D
    • Eb
    • E
    • F
    • F#
    • G
    • Ab
  • Adicionar à lista

    0 comentários

    Mostrar mais comentários

    Conseguiu tocar?

    1 Tocaram 0 Ainda não

    Grave um vídeo tocando Whos Crying Now Solo e mande pra gente!

    00:00 / 00:00
    outros vídeos desta música
    repetir qualidade Automático
    Outros vídeos desta música
    00:00 / 00:00
    Automático

    Cifra Club Pro

    Aproveite o Cifra Club com benefícios exclusivos e sem anúncios
    7 dias grátis
    Cifra Club Pro
    Aproveite o Cifra Club com benefícios exclusivos e sem anúncios
    7 dias grátis
    OK