Cifra Club

Doutor Dark Litch o Monarca da Morte

La Muerte

Cifra: Principal (violão e guitarra)
tom: Am
[Intro]

   Am    C/G   C/F#  C/F  Am    C/G    C/F#  C/F
E|-------------------------------------------------|
B|-----1-----1-----1-----1-----1-----1-----1-----1-|
G|-----2-----0-----0-----0-----2-----0-----0-----0-|
D|---2-----2-----0-----0-----2-----2-----0-----0---|
A|-0-----------------------0-----------------------|
E|-------3-----2-----1-----------3-----2-----1-----|

   Am    C/G   C/F#  C/F   Am    C/G    C/F#  
E|-------------------------------------------------|
B|-----1-----1-----1-----1-----1-----1--1----------|
G|-----2-----0-----0-----0-----2-----0--0----------|
D|---2-----2-----0-----0-----2-----2----0----------|
A|-0-----------------------0-----------------------|
E|-------3-----2-----1-----------3------2----------|

   Am    C/G   C/F#  C/F   Am    C/G   C/F#  C/F
E|-----0-----0-----0-----0-----0-----0-----0-----0-|
B|-----1-----1-----1-----1-----1-----1-----1-----1-|
G|---2-----0-----0-----0-----2-----0-----0-----0---|
D|-------------------------------------------------|
A|-0-----------------------0-----------------------|
E|-------3-----2-----1-----------3-----2-----1-----|

   Am    C/G   C/F#  C/F   Am    C/G    C/F# 
E|-----0-----0-----0-----0-----0-----0--0----------|
B|-----1-----1-----1-----1-----1-----1--1----------|
G|---2-----0-----0-----0-----2----------0----------|
D|-------------------------------------------------|
A|-0-----------------------0-----------------------|
E|-------3-----2-----1-----------3------2----------|

[Primeira Parte]

Am     C/G         C/F#    C/F
Mil trezentos e quarenta e quatro
Am    C/G         C/F#   C/F
Meus amigos foram assassinados
Am        C/G    C/F#          C/F     
Por uma doença maligna que lhe veio a cair
Am     C/G   C/F#
Jogada pelos ratos

Am     C/G   C/F#
Éramos três amigos
    C/F      
Que foram separados
Am     C/G     C/F#      C/F
Smiley morreu, Cassy faleceu
Am      C/G         C/F#     C/F
E disso tudo eu que fui o culpado, 
Am    C/G         C/F#
disso tudo eu que fui o culpado!

[Refrão]

Am                       C/G
Dark é meu nome sou, teu Médico da Peste
C/F#                  C/F
Se eu sentir a tua presença eu vou te estraçalhar
Am             C/G
Quero te levar pra outro lugar
C/F#        C/F
Sinto lhe dizer mais eu vou te matar

E|-------------|
B|-------------|
G|-------------|
D|-------------|
A|-------------|
E|-12/---------|

[Segunda Parte]

   Am    C/G   C/F#  C/F   Am    C/G   C/F#  C/F
E|-------------------------------------------------|
B|-----1-----1-----1-----1-----1-----1-----1-----1-|
G|-----2-----0-----0-----0-----2-----0-----0-----0-|
D|---2-----2-----0-----0-----2-----2-----0-----0---|
A|-0-----------------------0-----------------------|
E|-------3-----2-----1-----------3-----2-----1-----|

   Am    C/G   C/F#  C/F   Am    C/G    C/F#  
E|-------------------------------------------------|
B|-----1-----1-----1-----1-----1-----1--1----------|
G|-----2-----0-----0-----0-----2-----0--0----------|
D|---2-----2-----0-----0-----2-----2----0----------|
A|-0-----------------------0-----------------------|
E|-------3-----2-----1-----------3------2----------|

Am     C/G         C/F#     C/F
Mil trezentos e cinquenta e quatro
Am      C/G            C/F#   C/F           Am
Rezando pra que a epidemia já tenha acabado
C/G         C/F#        C/F
Nesses anos me tornei letrado
Am         C/G         C/F#      
Nas artes ocultas tô fazendo Doutorado

Am       C/G  C/F#  C/F
E nesses anos eu  sabia
Am         C/G    C/F#          C/F
Mudar esse ciclo usando necromancia
Am      C/G    C/F#        C/F
Que a Europa inteira ressuscite
Am         C/G            C/F#
Monarca da morte então me chama de Litch

Refrão:

Am                       C/G
Dark é meu nome sou, teu Médico da Peste
C/F#                  C/F
Se eu sentir a tua presença eu vou te estraçalhar
Am         C/G             C/F#
Quero te levar pro outro lugar
          C/F
Quem já morreu posso fazer voltar

E|-------------|
B|-------------|
G|-------------|
D|-------------|
A|-------------|
E|-12/---------|

Terceira Parte:

   Am    C/G   C/F#  C/F   Am    C/G   C/F#  C/F
E|-------------------------------------------------|
B|-----1-----1-----1-----1-----1-----1-----1-----1-|
G|-----2-----0-----0-----0-----2-----0-----0-----0-|
D|---2-----2-----0-----0-----2-----2-----0-----0---|
A|-0-----------------------0-----------------------|
E|-------3-----2-----1-----------3-----2-----1-----|

   Am    C/G   C/F#  C/F   Am    C/G    C/F#  
E|-------------------------------------------------|
B|-----1-----1-----1-----1-----1-----1--1----------|
G|-----2-----0-----0-----0-----2-----0--0----------|
D|---2-----2-----0-----0-----2-----2----0----------|
A|-0-----------------------0-----------------------|
E|-------3-----2-----1-----------3------2----------|

Am              C/G
Eu só queria salvar o mundo
        C/F#         C/F
Más não adianta, a doença levou tudo
Am
Me chame de Litch
       C/G                C/F#           C/F
Que eu vou te dizer o que sou capaz de fazer

Am                       C/G
Dark é meu nome sou, teu Médico da peste
C/F#                  C/F
Se eu sentir a tua presença eu vou te estraçalhar
Am         C/G             C/F#
Quero te levar pro outro lugar
            C/F
Sinto lhe dizer mais eu vou te matar

Am                       C/G
Dark é meu nome sou, teu Médico da peste
C/F#                  C/F
Se eu sentir a tua presença eu vou te estraçalhar
Am         C/G             C/F#
Quero te levar pro outro lugar
        C/F
Quem já morreu posso fazer voltar

E|-------------|
B|-------------|
G|-------------|
D|-------------|
A|-------------|
E|-12/---------|

[Final]

   Am    C/G   C/F#  C/F   Am    C/G   C/F#  C/F
E|-------------------------------------------------|
B|-----1-----1-----1-----1-----1-----1-----1-----1-|
G|-----2-----0-----0-----0-----2-----0-----0-----0-|
D|---2-----2-----0-----0-----2-----2-----0-----0---|
A|-0-----------------------0-----------------------|
E|-------3-----2-----1-----------3-----2-----1-----|

   Am    C/G   C/F#  C/F   Am    C/G    C/F#  
E|-------------------------------------------------|
B|-----1-----1-----1-----1-----1-----1--1----------|
G|-----2-----0-----0-----0-----2-----0--0----------|
D|---2-----2-----0-----0-----2-----2----0----------|
A|-0-----------------------0-----------------------|
E|-------3-----2-----1-----------3------2----------|

   Am    C/G   C/F#  C/F   Am    C/G   C/F#  C/F
E|-----0-----0-----0-----0-----0-----0-----0-----0-|
B|-----1-----1-----1-----1-----1-----1-----1-----1-|
G|---2-----0-----0-----0-----2-----0-----0-----0---|
D|-------------------------------------------------|
A|-0-----------------------0-----------------------|
E|-------3-----2-----1-----------3-----2-----1-----|

   Am    C/G   C/F#  C/F   Am    C/G    C/F# 
E|-----0-----0-----0-----0-----0-----0--0----------|
B|-----1-----1-----1-----1-----1-----1--1----------|
G|---2-----0-----0-----0-----2----------0----------|
D|-------------------------------------------------|
A|-0-----------------------0-----------------------|
E|-------3-----2-----1-----------3------2----------|
00:00 / 00:00
Outros vídeos desta música
Repetir
Outros vídeos desta música
Composição de La Muerte / V A N I T A S
Colaboração e revisão:
  • La Muerte
8 exibições
    • ½ Tom
    • Am
    • Bbm
    • Bm
    • Cm
    • C#m
    • Dm
    • Ebm
    • Em
    • Fm
    • F#m
    • Gm
    • G#m
  • Adicionar à lista

    0 comentários

    Ver todos os comentários

    Conseguiu tocar?

    0 Tocaram 0 Ainda não

    Grave um vídeo tocando Doutor Dark Litch o Monarca da Morte e nos envie!

    Entre para oCifra Club PRO

    Tenha acesso a benefícios exclusivos no App e no Site

    • Chega de anúncios

    • Prioridade de compra em lançamentos

    • Mais recursos no app do Afinador

    • Atendimento Prioritário

    • Descontos nos produtos Cifra Club

    • Ajude a produzir mais conteúdo

    00:00 / 00:00

    Cifra Club Pro

    Aproveite o Cifra Club com benefícios exclusivos e sem anúncios
    Cifra Club Pro
    Aproveite o Cifra Club com benefícios exclusivos e sem anúncios
    OK