Cifra Club

Aprenda

Metal Milkshake

Massacration

Cifra: Principal (violão e guitarra)
tom: E
Intro:

E|------------------------------------------------|
B|------------------------------------------------|
G|-6----------8-9----------6----------3-4---------|
D|-6----------8-9----------6----------3-4---------|
A|-4-4-4-4-4--6-7-7-7-7-7--4-4-4-4-4--1-2-2-2-2-2-|
E|------------------------------------------------|
     PM....       PM....      PM....      PM....

E|--------------------------|
B|--------------------------|
G|-6----------8-9-----------|
D|-6----------8-9-----------|
A|-4-4-4-4-4--6-7-7-7-7-7---|
E|--------------------------|
     PM....       PM.... 

E|---------------------------------------|
B|---------------------------------------|
G|-11----------11----------11------------|
D|-11----------11----------11------------|
A|-9--9-9-9-9--9--9-9-9-9--9--9-9-9-9----|
E|---------------------------------------|
      PM....       PM....      PM....
*****************************************************
E|------------------------------------------------|
B|------------------------------------------------|
G|-6----------8-9----------6----------3-4---------|
D|-6----------8-9----------6----------3-4---------|
A|-4-4-4-4-4--6-7-7-7-7-7--4-4-4-4-4--1-2-2-2-2-2-|
E|------------------------------------------------|
     PM....       PM....      PM....      PM....

E|--------------------------|
B|--------------------------|
G|-6----------8-9-----------|
D|-6----------8-9-----------|
A|-4-4-4-4-4--6-7-7-7-7-7---|
E|--------------------------|
     PM....       PM.... 

E|-------|
B|-------|
G|-11----|
D|-11----|
A|-9-----|
E|-------|

Segunda Parte da Intro:

E|--------------------------------------------|
B|--------------------------------------------|
G|-6-----6---8-9-----9---6-----6--3-4-----4---|
D|-6-----6---8-9-----9---6-----6--3-4-----4---|
A|-4-4-4-4---6-7-7-7-7---4-4-4-4--1-2-2-2-2---|
E|--------------------------------------------|
     PM..        PM..      PM..       PM..

E|---------------------------------------|
B|---------------------------------------|
G|-11----------11----------11------------|
D|-11----------11----------11------------|
A|-9--9-9-9-9--9--9-9-9-9--9--9-9-9-9----|
E|---------------------------------------|
      PM....       PM....      PM....

Base:

E|----------------------------------------|
B|----------------------------------------|
G|-6-6-6--9-9-9--11-11-11-----------------|
D|-6-6-6--9-9-9--11-11-11--7-7-7-6-6-6----|
A|-4-4-4--7-7-7--9--9--9---7-7-7-6-6-6----|
E|-------------------------5-5-5-4-4-4----|

Solo:

E|-------------------------------------------------|
B|-/12-10-9-7-9-10-10/12~-12~-12~-10---------------|
G|-------------------------------------------------|
D|-------------------------------------------------|
A|-------------------------------------------------|
E|-------------------------------------------------|

E|-------------------------------------------------|
B|-12-/14-12-10~-10~-10~/--9/10/12/10--------------|
G|-------------------------------------------------|
D|-------------------------------------------------|
A|-------------------------------------------------|
E|-------------------------------------------------|

E|-------------------------------------------------|
B|-12/14~-14~-14~-12-14/16-14-12~-12~-12~-9-10-12~-|
G|-------------------------------------------------|
D|-------------------------------------------------|
A|-------------------------------------------------|
E|-------------------------------------------------|

E|-------------------------------------------------|
B|-9-10-12~-9-10-12~-10~-9~-7~-5~~-----------------|
G|-------------------------------------------------|
D|-------------------------------------------------|
A|-------------------------------------------------|
E|-------------------------------------------------|

Parte do PM:

E|------------------------------------------|
B|------------------------------------------|
G|-6--------------------8-9-----------------|
D|-6--------------------8-9-----------------|
A|-4-4-4-4-4-4-4-4-4----6-7-7-7-7-7-7-7-7-7-|
E|------------------------------------------|
     PM..............       PM..............

E|-----------------------------------------|
B|-----------------------------------------|
G|-11--------------------------------------|
D|-11-------------------7-7-7-6-6-6--------|
A|-9-9-9-9-9-9-9-9-9-9--7-7-7-6-6-6--------|
E|----------------------5-5-5-4-4-4--------|
     PM................ PM.........

Composição de Massacration
81.696 exibições
    • ½ Tom
    • A
    • Bb
    • B
    • C
    • Db
    • D
    • Eb
    • E
    • F
    • F#
    • G
    • Ab
  • Adicionar à lista

    0 comentários

    Ver todos os comentários

    Conseguiu tocar?

    5 Tocaram 0 Ainda não

    Grave um vídeo tocando Metal Milkshake e nos envie!

    00:00 / 00:00
    Outros vídeos desta música
    Repetir Qualidade Automático
    Outros vídeos desta música
    00:00 / 00:00
    Automático

    Cifra Club Pro

    Aproveite o Cifra Club com benefícios exclusivos e sem anúncios
    Cifra Club Pro
    Aproveite o Cifra Club com benefícios exclusivos e sem anúncios
    OK