Cifra Club

Aprenda

Embo

Metallica

Tab de baixo: Principal
------------------------------------------ 
------------------------------------------ 
------------------------------------------ 
--0----0--5--5--7--7--5--3---------------- 
 
------------------------------------------ 
------------------------------------------ 
---------------------5--7----------------- 
--0----0--5--5--7--7---------------------- 
 
------------------------------------------ 
--------------------------5--7------------ 
---------------------5--7----------------- 
--0----0--5--5--7--7----------------------
Colaboração e revisão:
  • Hellektra
3.130 exibições

0 comentários

Ver todos os comentários

Conseguiu tocar?

0 Tocaram 0 Ainda não

Grave um vídeo tocando Embo e nos envie!

00:00 / 00:00
outros vídeos desta música
repetir qualidade Automático
Outros vídeos desta música
00:00 / 00:00
Automático

Cifra Club Pro

Aproveite o Cifra Club com benefícios exclusivos e sem anúncios
Cifra Club Pro
Aproveite o Cifra Club com benefícios exclusivos e sem anúncios
OK