Cifra Club

Snow (Hey Oh)

Red Hot Chili Peppers

Tab de baixo: Principal
exibições 111.130
Intro:
G|---------------------------------|
D|---------------------------------|
A|------4-6-7-----------6-7-9------|
E|-4--------------7----------------|

G|--------------------------------|
D|--------------------------------|
A|------4-6-7-----------6-7-9-----|
E|-4--------------7------------7--| 

Primeira parte:
G|-------------------------------|
D|-------------------------------|
A|------4-6-7-----------6-7-9----|
E|-4--------------7--------------|

Come to decide that the things that I tried
Were in my life just to get high on

G|---------------------------------|
D|---------------------------------|
A|------4-6-7-----------6-7-9--11--|
E|-4--------------7----------------|

When I sit alone come get a little more known
But I need more than myself this time

G|-------------------------------|
D|-------------------------------|
A|------4-6-7-----------6-7-9----|
E|-4--------------7--------------|

Step from the road to the sea to the sky
And I do believe what we rely on

G|--------------------------------|
D|--------------------------------|
A|------4-6-7-----------6-7-9-----|
E|-4--------------7------------7--|

When I lay it on come get to play it on
All my life to sacrifice

Segunda parte:
G|---------------------------------|
D|---------------------------------|
A|---4-6-7--6-4---6-7-9------------| 
E|-4------------7--------7-6-------|

G|-------------------------------------|
D|-------------------------------------|
A|---4-6-7--6-4------------------------|    
E|-4------------7-6-4-2--2-6-----------|

Hey oh,listen what I say oh
I got your

G|---------------------------------|
D|---------------------------------|
A|---4-6-7--6-4---6-7-9------------|  
E|-4------------7--------7-6-------|

G|---------------------------------|
D|---------------------------------|
A|---4-6-7--6-4--------------------|   
E|-4------------7-6-4-2------------|

Hey oh, now listen what I say oh


Terceira parte:
G|-------------------------------|
D|-------------------------------|
A|------4-6-7-----------6-7-9----|
E|-4--------------7--------------|

When will I know that I really can’t go
To the well once more time to decide on

G|---------------------------------|
D|---------------------------------|
A|------4-6-7-----------6-7-9--11--|
E|-4--------------7----------------|

When it’s killing me, when will I really see
All that I need to look inside

G|-------------------------------|
D|-------------------------------|
A|------4-6-7-----------6-7-9----|
E|-4--------------7--------------|

Come to believe that I better not leave
Before I get my chance to ride

G|--------------------------------|
D|--------------------------------|
A|------4-6-7-----------6-7-9-----|
E|-4--------------7------------7--|

When it’s killing me,what do I really need
All that I need to look inside

Segunda parte:
G|---------------------------------|
D|---------------------------------|
A|---4-6-7--6-4---6-7-9------------| 
E|-4------------7--------7-6-------|

G|-------------------------------------|
D|-------------------------------------|
A|---4-6-7--6-4------------------------|    
E|-4------------7-6-4-2--2-6-----------|

Hey oh,listen what I say oh
I got your

G|---------------------------------|
D|---------------------------------|
A|---4-6-7--6-4---6-7-9------------|  
E|-4------------7--------7-6-------|

G|---------------------------------|
D|---------------------------------|
A|---4-6-7--6-4--------------------|   
E|-4------------7-6-4-2------------|

Hey oh, now listen what I say oh

Pré-refrão:
G|---------------------------------------------------------|  
D|---------------------------------------------------------|
A|-7-7-7-9-11-11-11-9-7-7-7-7------------------------------| 
E|---------------------------------------------------------|

The more I see the less I know
The more I like to let it go
Hey oh
ooooooooooh

Refrão
G|--11--|--6---|--13----|
D|--9---|--4---|--11----|
A|------|------|--------|
E|------|------|--------|

Deep beneath the cover of another perfect wonder
Where it’s so white as snow
Privately divided by a world so undecided
And there’s nowhere to go
In between the cover of another perfect wonder
Where so white as snow
Running through the field where all my tracks will be concealed
And there's nowhere to go,ooooh

Volta intro:
G|---------------------------------|
D|---------------------------------|
A|------4-6-7-----------6-7-9------|
E|-4--------------7----------------|

G|--------------------------------|
D|--------------------------------|
A|------4-6-7-----------6-7-9-----|
E|-4--------------7------------7--| 

Quarta parte:
G|-------------------------------|
D|-------------------------------|
A|------4-6-7-----------6-7-9----|
E|-4--------------7--------------|

When to descend to amend for a friend
All the channels that have broken down

G|---------------------------------|
D|---------------------------------|
A|------4-6-7-----------6-7-9--11--|
E|-4--------------7----------------|

Now you bring it up,I’m gonna ring it up
Just to hear you sing it out

G|-------------------------------|
D|-------------------------------|
A|------4-6-7-----------6-7-9----|
E|-4--------------7--------------|

Step from the road to the sea to the sky
And I do believe what we rely on

G|--------------------------------|
D|--------------------------------|
A|------4-6-7-----------6-7-9-----|
E|-4--------------7------------7--|

When I lay it on,come get to play it on
All my life to sacrifice

Segunda parte:
G|---------------------------------|
D|---------------------------------|
A|---4-6-7--6-4---6-7-9------------| 
E|-4------------7--------7-6-------|

G|-------------------------------------|
D|-------------------------------------|
A|---4-6-7--6-4------------------------|    
E|-4------------7-6-4-2--2-6-----------|

Hey oh,listen what I say oh
I got your

G|---------------------------------|
D|---------------------------------|
A|---4-6-7--6-4---6-7-9------------|  
E|-4------------7--------7-6-------|

G|---------------------------------|
D|---------------------------------|
A|---4-6-7--6-4--------------------|   
E|-4------------7-6-4-2------------|

Hey oh, now listen what I say oh

Pré-refrão:
G|---------------------------------------------------------|  
D|---------------------------------------------------------|
A|-7-7-7-9-11-11-11-9-7-7-7-7------------------------------| 
E|---------------------------------------------------------|

The more I see the less I know
The more I like to let it go
Hey oh
ooooooooooh

Refrão até o final da música
G|--11--|--6---|--13----|
D|--9---|--4---|--11----|
A|------|------|--------|
E|------|------|--------|

Deep beneath the cover of another perfect wonder
Where it’s so white as snow
Privately divided by a world so undecided
And there’s nowhere to go
In between the cover of another perfect wonder
Where so white as snow
Running through the field where all my tracks will be concealed
And there's nowhere to go,ooooh

I said hey, oh yeah, oh yeah
Tell my lord now
Hey yeah,oh yeah,oh yeah
Tell my lord now

Deep beneath the cover of another perfect wonder
Where it’s so white as snow
Privately divided by a world so undecided
And there’s nowhere to go
In between the cover of another perfect wonder
Where it’s so white as snow
Running through the field where all my tracks will be concealed
And there's nowhere to go

I said hey, oh yeah, oh yeah
Tell my lord now
Hey yeah,oh yeah, oh yeah

0 comentários

    mostrar mais comentários

    Conseguiu tocar?

    61tocaram0ainda não

    Grave um vídeo tocando Snow (Hey Oh) e mande pra gente!

    00:00 / 00:00
    outros vídeos desta música
    repetirqualidadeautomática
    Outro vídeos desta música
      00:00 / 00:00
      automática
      OK