Cifra Club

Sirens

Angels & Airwaves

Tab de baixo: Principal
Verso:
G---7--7-7--7--7-7--7--7--9--9--6--|
D-55-55-5-99-99-9-77-77-77-77-77-7-| x6
A----------------------------------|
E----------------------------------|

Pré Refrão:
G-------------------------------------------------|
D-------------------------------------------------| x4
A-----99-9-----1010-10------12-121212121212121212-|
E-222/-----333/--------5555/----------------------|

Refrão
G--------------------------------------------------------------------|
D--------------------------------------------------------------------| x2
A-5555555555555557-----------------2222222222222225------------------|
E------------------333333333333323------------------3333333333333335-|

Verso x6

Pré Refrão x4

Refrão x2

Ponte
G---------------------------------------------------7--7-7--7--7-7--7--7-7---------|
D-5---/9---9h11-7---7-5-4-5---/9---9h11-7----55-4-55-55-5-99-99-9-77-77-7----------|
A-------------------------------------------------------------------------00000000-|
E----------------------------------------------------------------------------------|

---7--7-7--7--7-7--7--7-7-----------------|
-55-55-5-99-99-9-77-77-7-777777777777797\-|
------------------------------------------|
------------------------------------------|

Refrão x4

Termina em
G----|
D----|
A-5--|
E----|
exibições 150
Composição: Tom DeLonge Colaboração e revisão:
  • Jean Sapia

0 comentários

mostrar mais comentários

Conseguiu tocar?

0 tocaram 0 ainda não

Grave um vídeo tocando Sirens e mande pra gente!

00:00 / 00:00
outros vídeos desta música
repetir qualidade Automático
Outros vídeos desta música
00:00 / 00:00
Automático
OK