Cifra Club

Aprenda

Rebirth

Angra

Tab de baixo: Acustica
G|--7h9---7---4--4-6-7----5---7/9----7-----5h7--|
D|----------------------------------------------|
A|----------------------------------------------|
E|----------------------------------------------|

G|--------------------------------------------------|
D|---7-7\------3h5----------------------------------|
A|---------5--------3-----------5----5-7-8----------|
E|---------------------0-----5-----------------1/5--|

G|--------------------------------------------------------|
D|---5h7-7\------3h5--------------------------------------|
A|------------5--------3-------------5-7-8-7-5-7/8--------|
E|-------------------------0-----5--------------------1/5-|

G|--------------------------|----|---------------|
D|--------------------------|-5--|---------------|
A|--------------------------|-5--|---------------|
E|1-1-1-1-1-1-1-1-1-1-1-1-1-|-3--|-5-5-5-5-5-5---|

 
G|---------------------------------------|
D|---------------------------------------|   
A|---------------------------------------|         
E|-5-5-5-5-5--5-3-3-3-3-3-3--0-0-0-0-0-0-| 

G|-------------------------------------------------|
D|-------------------------------------------------|
A|--------------------------5-5-5-5-5-5------------|
E|5-5-5-5-5-5--5-5-5-5-5-5--------------3-3-3-3-3-3|

G|--------------------------------------------------|
D|--------------------------------------------------|
A|3-3-3-3-3-3---------------------------------------|
E|------------0-0-0-0-0-0--1-1-1-1-1-1--3-3-3-3-3-3-|

G|-------------------|
D|---------------5---|
A|---------------5---|
E|-5-5-5-5-5-5---3---|

G|-----------------------------------------------|
D|-----------------------------------------------|
A|-----------------------------------------------|
E|1--1-1-1--1-1-1-1-1-1-1--3-5--5-5-5-5-5-5-5--3-|3x

G|--------------------------------------------|
D|--------------------------------------------|
A|---------------------------5--5-5-5-5-5-5-5-|
E|1--1-1-1--1-1-1-1-1-1-1--0------------------|
 
G|-------------------------------------------------|
D|-------------------------------------------------|
A|5--3--3-3-3--3-3-3-3-3-3-3-5--7--7-7-7--7-7-7-7-7|
E|-------------------------------------------------|
                      
G|-----------------|
D|-----------------|
A|---------------0-| 2X
E|-5--2-3--0-1-3---|

G|----------------------------------|
D|----------------------------------|
A|---5---5-7-5---5-4-3---3-2--------|
E|----------------------------1--0--|

G|----------------------------------|
D|----------------------------------|
A|---5---5-7-5---5-4-3---3-2~~------|
E|----------------------------------|

G|-------------------|
D|---------------5---|
A|---------------5---|
E|-5-5-5-5-5-5---3---|

G|-----------------------------------------------|
D|-----------------------------------------------|
A|-----------------------------------------------|
E|1--1-1-1--1-1-1-1-1-1-1--3-5--5-5-5-5-5-5-5--3-|3x

G|--------------------------------------------|
D|--------------------------------------------|
A|---------------------------5--5-5-5-5-5-5-5-|
E|1--1-1-1--1-1-1-1-1-1-1--0------------------|

G|-------------------------------------------------|
D|-------------------------------------------------|
A|5--3--3-3-3--3-3-3-3-3-3-3-5--7--7-7-7--7-7-7-7-7|
E|-------------------------------------------------|
                      
G|----------------------|
D|----------------------|
A|-10---------10h12-----| 
E|------10--------------|
Composição de Pedro Henrique Loureiro / Rafael Bittencourt
Colaboração e revisão:
  • fernando almeida
299 exibições

0 comentários

Ver todos os comentários
00:00 / 00:00
outros vídeos desta música
repetir qualidade Automático
Outros vídeos desta música
00:00 / 00:00
Automático

Cifra Club Pro

Aproveite o Cifra Club com benefícios exclusivos e sem anúncios
Cifra Club Pro
Aproveite o Cifra Club com benefícios exclusivos e sem anúncios
OK