Cifra Club

Sorrow

Box Car Racer

Tab de baixo: Versão 2
Tabbed by: Blake Rakoczi
E-Mail: *

G|-------------------------------------------------------------------
D|-------------------------------------------------------------------
A|---------------7-7-7-7-7-7---5-5-5-5-5-5---5-5-5-5-5-5------------- x2
E|-5-5-5-5-5-5-------------------------------------------------------


Intro
G|-------------------------------------------------------------------
D|-------------------------------------------------------------------
A|---------------7-7-7-7-7-7---5-5-5-5-5-5---5-5-5-5-5-5------------- x2
E|-5-5-5-5-5-5-------------------------------------------------------


Chorus
G|------------------------------------------------------------------- --o
D|-------------------------------------------------------------------   |
A|-------------------------------------------------------------------   |
E|-5-5-5-5-5-5-5-5-5-5-5-5-5-5-5-5--4-4-4-4-4-4-4-4-4-4-4-4-4-4-4-4--   |
									| x1
G|-------------------------------------------------------------------   |
D|-------------------------------------------------------------------   | 
A|-------------------------------------------------------------------   |
E|-2-2-2-2-2-2-2-2-2-2-2-2-2-2-2-2-2-2-2-2-2-2-2--4-4-4-4-4-4-4-4---- --o

Intro
G|-------------------------------------------------------------------
D|-------------------------------------------------------------------
A|---------------7-7-7-7-7-7---5-5-5-5-5-5---5-5-5-5-5-5------------- x2
E|-5-5-5-5-5-5-------------------------------------------------------


Chorus
G|------------------------------------------------------------------- --o
D|-------------------------------------------------------------------   |
A|-------------------------------------------------------------------   |
E|-5-5-5-5-5-5-5-5-5-5-5-5-5-5-5-5--4-4-4-4-4-4-4-4-4-4-4-4-4-4-4-4--   |
									| x2
G|-------------------------------------------------------------------   |
D|-------------------------------------------------------------------   |
A|-------------------------------------------------------------------   |
E|-2-2-2-2-2-2-2-2-2-2-2-2-2-2-2-2-2-2-2-2-2-2-2--4-4-4-4-4-4-4-4---- --o


Bridge
G|-------------------------------------------------------------------
D|-------------------------------------------------------------------
A|---------------7-7-7-7-7-7---5-5-5-5-5-5---5-5-5-5-5-5------------- x2
E|-5-5-5-5-5-5-------------------------------------------------------

G|-------------------------------------------------------------------
D|-------------------------------------------------------------------
A|-4-4-4-4-4-4---5-5-5-5-5-5----------------------------------------- x1
E|-----------------------------5-5-5-5-5-5---6-6-6-6-6-6-------------

G|-------------------------------------------------------------------
D|-------------------------------------------------------------------
A|-4-4-4-4-4-4---5-5-5-5-5-5----------------------------------------- x1
E|-----------------------------5-5-5-5-5-5---7-7-7-7-7-7-------------

Chorus
G|------------------------------------------------------------------- --o
D|-------------------------------------------------------------------   |
A|-------------------------------------------------------------------   |
E|-5-5-5-5-5-5-5-5-5-5-5-5-5-5-5-5--4-4-4-4-4-4-4-4-4-4-4-4-4-4-4-4--   |
									| x2
G|-------------------------------------------------------------------   |
D|-------------------------------------------------------------------   |
A|-------------------------------------------------------------------   |
E|-2-2-2-2-2-2-2-2-2-2-2-2-2-2-2-2-2-2-2-2-2-2-2--4-4-4-4-4-4-4-4---- --o

End On
G|-------------------------------------------------------------------
D|-------------------------------------------------------------------
A|------------------------------------------------------------------- x1
E|-5~~~~~~~~---------------------------------------------------------
exibições 52

0 comentários

mostrar mais comentários

Conseguiu tocar?

0 tocaram 0 ainda não

Grave um vídeo tocando Sorrow e mande pra gente!

00:00 / 00:00
outros vídeos desta música
repetir qualidade Automático
Outros vídeos desta música
00:00 / 00:00
Automático
OK