Cifra Club

Don't Stay

Linkin Park

Cifra: Principal
exibições 52.939
Tom: C
Intro - Guitar 1
|-------------------------------------------------------------------------------------------------|
|-------------------------------------------------------------------------------------------------|
|-------------------------------------------------------------------------------------------------|
|-0--0--0--7-----3-----3--5--5--5--8-----7-----7--0--0--0--7-----3-----3--5--5--5--8-----7-----7--|
|-0--0--0--7-----3-----3--5--5--5--8-----7-----7--0--0--0--7-----3-----3--5--5--5--8-----7-----7--|
|-0--0--0--7-----3-----3--5--5--5--8-----7-----7--0--0--0--7-----3-----3--5--5--5--8-----7-----7--|

|-------------------------------------------------------------------------------------------------|
|-------------------------------------------------------------------------------------------------|
|-------------------------------------------------------------------------------------------------|
|-0--0--0--7-----3-----3--5--5--5--8-----7-----7--0--0--0--7-----3-----3--5--5--5--8-----7-----7--|
|-0--0--0--7-----3-----3--5--5--5--8-----7-----7--0--0--0--7-----3-----3--5--5--5--8-----7-----7--|
|-0--0--0--7-----3-----3--5--5--5--8-----7-----7--0--0--0--7-----3-----3--5--5--5--8-----7-----7--|

Heavy Intro - Guitars 2 and 3
|-------------------------------------------------------------------------------------------------|
|-------------------------------------------------------------------------------------------------|
|-------------------------------------------------------------------------------------------------|
|-0--0--0--7-----3-----3--5--5--5--8-----7-----7--0--0--0--7-----3-----3--5--5--5--8-----7-----7--|
|-0--0--0--7-----3-----3--5--5--5--8-----7-----7--0--0--0--7-----3-----3--5--5--5--8-----7-----7--|
|-0--0--0--7-----3-----3--5--5--5--8-----7-----7--0--0--0--7-----3-----3--5--5--5--8-----7-----7--|

|-------------------------------------------------------------------------------------------------|
|-------------------------------------------------------------------------------------------------|
|-------------------------------------------------------------------------------------------------|
|-0--0--0--7-----3-----3--5--5--5--8-----7-----7--0--0--0--7-----3-----3--5--5--5--8-----7-----7--|
|-0--0--0--7-----3-----3--5--5--5--8-----7-----7--0--0--0--7-----3-----3--5--5--5--8-----7-----7--|
|-0--0--0--7-----3-----3--5--5--5--8-----7-----7--0--0--0--7-----3-----3--5--5--5--8-----7-----7--|

First Verse - Guitar 2
|-------------------------------------------------------------------------------------------------|
|-------------------------------------------------------------------------------------------------|
|-------------------------------------------------------------------------------------------------|
|-0--0--0--7-----3-----3--5--5--5--8-----7-----7--0--0--0--7-----3-----3--5--5--5--8-----7-----7--|
|-0--0--0--7-----3-----3--5--5--5--8-----7-----7--0--0--0--7-----3-----3--5--5--5--8-----7-----7--|
|-0--0--0--7-----3-----3--5--5--5--8-----7-----7--0--0--0--7-----3-----3--5--5--5--8-----7-----7--|

|-------------------------------------------------------------------------------------------------|
|-------------------------------------------------------------------------------------------------|
|-------------------------------------------------------------------------------------------------|
|-0--0--0--7-----3-----3--5--5--5--8-----7-----7--0--0--0--7-----3-----3--1--1-----1-----x--x--x--|
|-0--0--0--7-----3-----3--5--5--5--8-----7-----7--0--0--0--7-----3-----3--1--1-----1-----x--x--x--|
|-0--0--0--7-----3-----3--5--5--5--8-----7-----7--0--0--0--7-----3-----3--1--1-----1-----x--x--x--|
|Guitar 2
|
|-------------------------------------------------------------------------------------------------|
|-------------------------------------------------------------------------------------------------|
|-------------------------------------------------------------------------------------------------|
|-------------------------------------------------------------------------1--1-----1-----x--x--x--|
|-------------------------------------------------------------------------1--1-----1-----x--x--x--|
|-------------------------------------------------------------------------1--1-----1-----x--x--x--|
|Guitar 3

(Guitars 2 and 3)
|-------------------------------------------------------------------------------------------------|
|-------------------------------------------------------------------------------------------------|
|-------------------------------------------------------------------------------------------------|
|-0--0--0--7-----3-----3--5--5--5--8-----7-----7--0--0--0--7-----3-----3--5--5--5--8-----7-----7--|
|-0--0--0--7-----3-----3--5--5--5--8-----7-----7--0--0--0--7-----3-----3--5--5--5--8-----7-----7--|
|-0--0--0--7-----3-----3--5--5--5--8-----7-----7--0--0--0--7-----3-----3--5--5--5--8-----7-----7--|

|-------------------------------------------------------------------------------------------------|
|-------------------------------------------------------------------------------------------------|
|-------------------------------------------------------------------------------------------------|
|-0--0--0--7-----3-----3--5--5--5--8-----7-----7--0--0--0--7-----3-----3--1--1-----1-----x--x--x--|
|-0--0--0--7-----3-----3--5--5--5--8-----7-----7--0--0--0--7-----3-----3--1--1-----1-----x--x--x--|
|-0--0--0--7-----3-----3--5--5--5--8-----7-----7--0--0--0--7-----3-----3--1--1-----1-----x--x--x--|

Chorus - Guitars 2 and 3
|-------------------------------------------------------------------------------------------------|
|-------------------------------------------------------------------------------------------------|
|-------------------------------------------------------------------------------------------------|
|-0-----------------0-----7--------8--------10----5-----------------5-----7--------3--------1-----|
|-0-----------------0-----7--------8--------10----5-----------------5-----7--------3--------1-----|
|-0-----------------0-----7--------8--------10----5-----------------5-----7--------3--------1-----|

|-------------------------------------------------------------------------------------------------|
|-------------------------------------------------------------------------------------------------|
|-------------------------------------------------------------------------------------------------|
|-0-----------------0-----7--------8--------10----5-----------------5-----7--------3--------1-----|
|-0-----------------0-----7--------8--------10----5-----------------5-----7--------3--------1-----|
|-0-----------------0-----7--------8--------10----5-----------------5-----7--------3--------1-----|

|-------------------------------------------------------------------------------------------------|
|-------------------------------------------------------------------------------------------------|
|-------------------------------------------------------------------------------------------------|
|-0-----------------0-----7--------8--------10----5-----------------5-----7--------3--------1-----|
|-0-----------------0-----7--------8--------10----5-----------------5-----7--------3--------1-----|
|-0-----------------0-----7--------8--------10----5-----------------5-----7--------3--------1-----|

|-------------------------------------------------------------------------------------------------|
|-------------------------------------------------------------------------------------------------|
|-------------------------------------------------------------------------------------------------|
|-0-----------------0-----7--------8--------10----5-----------------5-----7--------3--------1-----|
|-0-----------------0-----7--------8--------10----5-----------------5-----7--------3--------1-----|
|-0-----------------0-----7--------8--------10----5-----------------5-----7--------3--------1-----|

Post-Chorus - Guitars 2 and 3
|-------------------------------------------------------------------------------------------------|
|-------------------------------------------------------------------------------------------------|
|-------------------------------------------------------------------------------------------------|
|-0--0--0--7-----3-----3--5--5--5--8-----7-----7--0--0--0--7-----3-----3--5--5--5--8-----7-----7--|
|-0--0--0--7-----3-----3--5--5--5--8-----7-----7--0--0--0--7-----3-----3--5--5--5--8-----7-----7--|
|-0--0--0--7-----3-----3--5--5--5--8-----7-----7--0--0--0--7-----3-----3--5--5--5--8-----7-----7--|

2nd Verse - Guitar 2
|-------------------------------------------------------------------------------------------------|
|-------------------------------------------------------------------------------------------------|
|-------------------------------------------------------------------------------------------------|
|-0--0--0--7-----3-----3--5--5--5--8-----7-----7--0--0--0--7-----3-----3--5--5--5--8-----7-----7--|
|-0--0--0--7-----3-----3--5--5--5--8-----7-----7--0--0--0--7-----3-----3--5--5--5--8-----7-----7--|
|-0--0--0--7-----3-----3--5--5--5--8-----7-----7--0--0--0--7-----3-----3--5--5--5--8-----7-----7--|

|-------------------------------------------------------------------------------------------------|
|-------------------------------------------------------------------------------------------------|
|-------------------------------------------------------------------------------------------------|
|-0--0--0--7-----3-----3--5--5--5--8-----7-----7--0--0--0--7-----3-----3--1--1-----1-----x--x--x--|
|-0--0--0--7-----3-----3--5--5--5--8-----7-----7--0--0--0--7-----3-----3--1--1-----1-----x--x--x--|
|-0--0--0--7-----3-----3--5--5--5--8-----7-----7--0--0--0--7-----3-----3--1--1-----1-----x--x--x--|
|Guitar 2
|
|-------------------------------------------------------------------------------------------------|
|-------------------------------------------------------------------------------------------------|
|-------------------------------------------------------------------------------------------------|
|-------------------------------------------------------------------------1--1-----1-----x--x--x--|
|-------------------------------------------------------------------------1--1-----1-----x--x--x--|
|-------------------------------------------------------------------------1--1-----1-----x--x--x--|
|Guitar 3

(Guitars 2 and 3)
|-------------------------------------------------------------------------------------------------|
|-------------------------------------------------------------------------------------------------|
|-------------------------------------------------------------------------------------------------|
|-0--0--0--7-----3-----3--5--5--5--8-----7-----7--0--0--0--7-----3-----3--5--5--5--8-----7-----7--|
|-0--0--0--7-----3-----3--5--5--5--8-----7-----7--0--0--0--7-----3-----3--5--5--5--8-----7-----7--|
|-0--0--0--7-----3-----3--5--5--5--8-----7-----7--0--0--0--7-----3-----3--5--5--5--8-----7-----7--|

|-------------------------------------------------------------------------------------------------|
|-------------------------------------------------------------------------------------------------|
|-------------------------------------------------------------------------------------------------|
|-0--0--0--7-----3-----3--5--5--5--8-----7-----7--0--0--0--7-----3-----3--1--1-----1-----x--x--x--|
|-0--0--0--7-----3-----3--5--5--5--8-----7-----7--0--0--0--7-----3-----3--1--1-----1-----x--x--x--|
|-0--0--0--7-----3-----3--5--5--5--8-----7-----7--0--0--0--7-----3-----3--1--1-----1-----x--x--x--|
|-------------------------|
|-------------------------|
|-------------------------|
|-1--1-----1-----x--x--x--|
|-1--1-----1-----x--x--x--|
|-1--1-----1-----x--x--x--|

Chorus - Guitars 2 and 3
|-------------------------------------------------------------------------------------------------|
|-------------------------------------------------------------------------------------------------|
|-------------------------------------------------------------------------------------------------|
|-0-----------------0-----7--------8--------10----5-----------------5-----7--------3--------1-----|
|-0-----------------0-----7--------8--------10----5-----------------5-----7--------3--------1-----|
|-0-----------------0-----7--------8--------10----5-----------------5-----7--------3--------1-----|

|-------------------------------------------------------------------------------------------------|
|-------------------------------------------------------------------------------------------------|
|-------------------------------------------------------------------------------------------------|
|-0-----------------0-----7--------8--------10----5-----------------5-----7--------3--------1-----|
|-0-----------------0-----7--------8--------10----5-----------------5-----7--------3--------1-----|
|-0-----------------0-----7--------8--------10----5-----------------5-----7--------3--------1-----|

|-------------------------------------------------------------------------------------------------|
|-------------------------------------------------------------------------------------------------|
|-------------------------------------------------------------------------------------------------|
|-0-----------------0-----7--------8--------10----5-----------------5-----7--------3--------1-----|
|-0-----------------0-----7--------8--------10----5-----------------5-----7--------3--------1-----|
|-0-----------------0-----7--------8--------10----5-----------------5-----7--------3--------1-----|

|-------------------------------------------------------------------------------------------------|
|-------------------------------------------------------------------------------------------------|
|-------------------------------------------------------------------------------------------------|
|-0-----------------0-----7--------8--------10----5-----------------5-----7--------3--------1-----|
|-0-----------------0-----7--------8--------10----5-----------------5-----7--------3--------1-----|
|-0-----------------0-----7--------8--------10----5-----------------5-----7--------3--------1-----|

Breakdown - Guitar 4
|-------------------------------------------------------------------------------------------------|
|-------------------------------------------------------------------------------------------------|
|-------------------------------------------------------------------------------------------------|
|-0--0--0--7-----3-----3--5--5--5--8-----7-----7--0--0--0--7-----3-----3--5--5--5--8-----7-----7--|
|-0--0--0--7-----3-----3--5--5--5--8-----7-----7--0--0--0--7-----3-----3--5--5--5--8-----7-----7--|
|-0--0--0--7-----3-----3--5--5--5--8-----7-----7--0--0--0--7-----3-----3--5--5--5--8-----7-----7--|

|-------------------------------------------------------------------------------------------------|
|-------------------------------------------------------------------------------------------------|
|-------------------------------------------------------------------------------------------------|
|-0--0--0--7-----3-----3--5--5--5--8-----7-----7--0--0--0--7-----3-----3--5--5--5--8--------------|
|-0--0--0--7-----3-----3--5--5--5--8-----7-----7--0--0--0--7-----3-----3--5--5--5--8--------------|
|-0--0--0--7-----3-----3--5--5--5--8-----7-----7--0--0--0--7-----3-----3--5--5--5--8--------------|

Bridge - Guitars 2 and 3
|-------------------------------------------------------------------------------------------------|
|-------------------------------------------------------------------------------------------------|
|-------------------------5--5--5--5-----5-/8-----------------------------5--5--5--5-----5-/8-----|
|-0-----0--1-----1--0-----x--x--x--x-----x--x-----0-----0--1-----1--0-----x--x--x--x-----x--x-----|
|-0-----0--1-----1--0-----3--3--3--3-----3-/6-----0-----0--1-----1--0-----3--3--3--3-----3-/6-----|
|-0-----0--1-----1--0-----------------------------0-----0--1-----1--0-----------------------------|

|-------------------------------------------------------------------------------------------------|
|-------------------------------------------------------------------------------------------------|
|-------------------------5--5--5--5-----5-/8-----------------------------5--5b-5b-5b----5b-5b----|
|-0-----0--1-----1--0-----x--x--x--x-----x--x-----0-----0--1-----1--0-----x--x--x--x-----x--x-----|
|-0-----0--1-----1--0-----3--3--3--3-----3-/6-----0-----0--1-----1--0-----3--3b-3b-3b----3b-3b----|
|-0-----0--1-----1--0-----------------------------0-----0--1-----1--0-----------------------------|

|-------------------------------------------------------------------------------------------------|
|-------------------------------------------------------------------------------------------------|
|-------------------------5--5--5--5-----5-/8-----------------------------5--5--5--5-----5-/8-----|
|-0-----0--1-----1--0-----x--x--x--x-----x--x-----0-----0--1-----1--0-----x--x--x--x-----x--x-----|
|-0-----0--1-----1--0-----3--3--3--3-----3-/6-----0-----0--1-----1--0-----3--3--3--3-----3-/6-----|
|-0-----0--1-----1--0-----------------------------0-----0--1-----1--0-----------------------------|

|-------------------------------------------------------------------------|
|-------------------------------------------------------------------------|
|-------------------------5--5--5--5-----5-/8-----------------------------|
|-0-----0--1-----1--0-----x--x--x--x-----x--x-----0-----0--1-----1--0-----|
|-0-----0--1-----1--0-----3--3--3--3-----3-/6-----0-----0--1-----1--0-----|
|-0-----0--1-----1--0-----------------------------0-----0--1-----1--0-----|

Pre-Chorus - Guitars 2 and 3
|-------------------------------------------------------------------------------------------------|
|-------------------------------------------------------------------------------------------------|
|-------------------------------------------------------------------------------------------------|
|-1--1-----1-----x--x--x--1--1-----1-----x--x--x--1--1-----1-----x--x--x--1--1--1--1--1--1--1--1--|
|-1--1-----1-----x--x--x--1--1-----1-----x--x--x--1--1-----1-----x--x--x--1--1--1--1--1--1--1--1--|
|-1--1-----1-----x--x--x--1--1-----1-----x--x--x--1--1-----1-----x--x--x--1--1--1--1--1--1--1--1--|

Final Chorus - Guitars 2 and 3
|-------------------------------------------------------------------------------------------------|
|-------------------------------------------------------------------------------------------------|
|-------------------------------------------------------------------------------------------------|
|-0-----------------0-----7--------8--------10----5-----------------5-----7--------3--------1-----|
|-0-----------------0-----7--------8--------10----5-----------------5-----7--------3--------1-----|
|-0-----------------0-----7--------8--------10----5-----------------5-----7--------3--------1-----|

|-------------------------------------------------------------------------------------------------|
|-------------------------------------------------------------------------------------------------|
|-------------------------------------------------------------------------------------------------|
|-0-----------------0-----7--------8--------10----5-----------------5-----7--------3--------1-----|
|-0-----------------0-----7--------8--------10----5-----------------5-----7--------3--------1-----|
|-0-----------------0-----7--------8--------10----5-----------------5-----7--------3--------1-----|

|-------------------------------------------------------------------------------------------------|
|-------------------------------------------------------------------------------------------------|
|-------------------------------------------------------------------------------------------------|
|-0-----------------0-----7--------8--------10----5-----------------5-----7--------3--------1-----|
|-0-----------------0-----7--------8--------10----5-----------------5-----7--------3--------1-----|
|-0-----------------0-----7--------8--------10----5-----------------5-----7--------3--------1-----|

|-------------------------------------------------------------------------------------------------|
|-------------------------------------------------------------------------------------------------|
|-------------------------------------------------------------------------------------------------|
|-0-----------------0-----7--------8--------10----5-----------------5-----7--------3--------1-----|
|-0-----------------0-----7--------8--------10----5-----------------5-----7--------3--------1-----|
|-0-----------------0-----7--------8--------10----5-----------------5-----7--------3--------1-----|

Ending - Guitars 2 and 3
|-------------------------------------------------------------------------------------------------|
|-------------------------------------------------------------------------------------------------|
|-------------------------------------------------------------------------------------------------|
|-0--0--0--7-----3-----3--5--5--5--8-----7-----7--0--0--0--7-----3-----3--5--5--5--8-----7-----7--|
|-0--0--0--7-----3-----3--5--5--5--8-----7-----7--0--0--0--7-----3-----3--5--5--5--8-----7-----7--|
|-0--0--0--7-----3-----3--5--5--5--8-----7-----7--0--0--0--7-----3-----3--5--5--5--8-----7-----7--|

|-------------------------------------------------------------------------------------------------|
|-------------------------------------------------------------------------------------------------|
|-------------------------------------------------------------------------------------------------|
|-0--0--0--7-----3-----3--5--5--5--8-----7-----7--0--0--0--7-----3-----3--1--1-----1-----x--x--x--|
|-0--0--0--7-----3-----3--5--5--5--8-----7-----7--0--0--0--7-----3-----3--1--1-----1-----x--x--x--|
|-0--0--0--7-----3-----3--5--5--5--8-----7-----7--0--0--0--7-----3-----3--1--1-----1-----x--x--x--|
Acordes para:
    Colaboração e revisão:
    • Douglas Felipe

    0 comentários

      mostrar mais comentários

      Conseguiu tocar?

      5tocaram0ainda não

      Grave um vídeo tocando Don't Stay e mande pra gente!

      00:00 / 00:00
      outros vídeos desta música
      repetirqualidadeautomática
      Outro vídeos desta música
        00:00 / 00:00
        automática
        OK