Cifra Club

Metal Dental Destruction

Massacration

Cifra: Principal (violão e guitarra)
tom: A
(intro)
(repete por toda a música)
|---------------------------------------------------------------------------------|
|---------------------------------------------------------------------------------|
|---------------------------------------------------------------------------------|
|-9----9----9---9----9----9---9----9----9-----------------------------------------|
|-7-77-7-77-7-7-7-77-7-77-7-7-7-77-7-77-7-7--7-8-7---5----------------------------|
|--------------------------------------------------8---6~~--0---------------------|

|---------------------------------------------------------------------------------|
|---------------------------------------------------------------------------------|
|---------------------------------------------------------------------------------|
|-9----9----9---9----9----9---9----9----9--------------8~~------------------------|
|-7-77-7-77-7-7-7-77-7-77-7-7-7-77-7-77-7-7--7-8-7-5-5----------------------------|
|---------------------------------------------------------------------------------|

(pre-chorus)
|---------------------------------------------------------------------------------|
|---------------------------------------------------------------------------------|
|---------------------------------------------------------------------------------|
|----------9--9--9-----------9--9--9----------------------------------------------|
|-8--8--8--7--7--7--8--8--8--7--7--7--8--8--8/7\8--8--8/7\8--8--8/7\8-7-7-7-------|
|-6--6--6-----------6--6--6-----------6--6--6/5\6--6--6/5\6--6--6/5\6-5-5-5-------|

(repete tudo desde o começo)

(refrão)
|---------------------------------------------------------------------------------|
|---------------------------------------------------------------------------------|
|---------------------------------------------------------------------------------|
|----7-5-4------------------------------------------------------------------------|
|-2~-5-3-2-7-5----5----5---9----9----9/10\9----9----9-----------------------------|
|-0~-------5-3-33-3-33-3-3-7-77-7-77-7/8 \7-77-7-77-7-7---------------------------|

|---------------------------------------------------------------------------------|
|---------------------------------------------------------------------------------|
|----7-5-4------------------------------------------------------------------------|
|-2~-5-3-2-7-5----5----5---9----9----9/10\9----9----9-----------------------------|
|-0~-------5-3-33-3-33-3-3-7-77-7-77-7/8 \7-77-7-77-7-7---------------------------|

(enquanto o dentista fala)
|---------------------------------------------------------------------------------|
|---------------------------------------------------------------------------------|
|---------------------------------------------------------------------------------|
|---------------------------------------------------------------------------------|
|---------------------------------7~~~~~~~~---------------------------------------|
|-0~~~~~~~~~~3~~~~~~~~7~~~~~~~~~~----------3~~~~~~~~~7~~~~~~~~~~~~~~--------------| 
(repete tudo)

( D )
Compositor não encontrado.
Colaboração e revisão:
  • Hiago Lima
  • David Silva
13.601 exibições
    • ½ Tom
    • A
    • Bb
    • B
    • C
    • Db
    • D
    • Eb
    • E
    • F
    • F#
    • G
    • Ab
  • Adicionar à lista

    0 comentários

    Ver todos os comentários

    Conseguiu tocar?

    0 Tocaram 0 Ainda não

    Grave um vídeo tocando Metal Dental Destruction e nos envie!

    00:00 / 00:00
    Outros vídeos desta música
    Repetir Qualidade Automático
    Outros vídeos desta música
    00:00 / 00:00
    Automático

    Cifra Club Pro

    Aproveite o Cifra Club com benefícios exclusivos e sem anúncios
    Cifra Club Pro
    Aproveite o Cifra Club com benefícios exclusivos e sem anúncios
    OK