Cifra Club

Aprenda

Fuck Like a Beaver

Metallica

Tab de baixo: Principal
     W                   E  E  E  E  E  E  S S S S  
G||-------------------|----------------------------|
D||-------------------|----------------------------|
A||-------------------|----------------------------|
E||-------------------|--0--0--0--0--0--0--0-0-0-0-|

  E  E  E  E  E  E  S S S S    E  E  E  E  E  E  S S S S  
----------------------------|----------------------------|
----------------------------|----------------------------|
----------------------------|----------------------------|
--0--0--0--0--0--0--0-0-0-0-|--0--0--0--0--0--0--0-0-0-0-|

  Q    E  Q    E  E  E     E  E  S S S S E  E  S S S S  
------------------------|------------------------------|
------------------------|------------------------------|
------------------------|------------------------------|
--1----0--1----0--1--0--|--0--0--0-0-0-0-0--0--0-0-0-0-|

  E  E  S S S S E  E  S S S S    E  E  S S S S E  E  S S S S  
------------------------------|------------------------------|
------------------------------|------------------------------|
------------------------------|------------------------------|
--0--0--0-0-0-0-0--0--0-0-0-0-|--0--0--0-0-0-0-0--0--0-0-0-0-|

  Q    E  Q    E  E  E     E  E  S S S S E  E  S S S S  
------------------------|------------------------------|
------------------------|------------------------------|
------------------------|------------------------------|
--1----0--1----0--1--0--|--0--0--0-0-0-0-0--0--0-0-0-0-|

  E  E  S S S S E  E  S S S S    E  E  S S S S E  E  S S S S  
------------------------------|------------------------------|
------------------------------|------------------------------|
------------------------------|------------------------------|
--0--0--0-0-0-0-0--0--0-0-0-0-|--0--0--0-0-0-0-0--0--0-0-0-0-|

  Q    E  Q    E  E  E     E  E  S S S S E  E  S S S S  
------------------------|------------------------------|
------------------------|------------------------------|
------------------------|------------------------------|
--1----0--1----0--1--0--|--0--0--0-0-0-0-0--0--0-0-0-0-|

  E  E  S S S S E  E  S S S S    E  E  S S S S E  E  S S S S  
------------------------------|------------------------------|
------------------------------|------------------------------|
------------------------------|------------------------------|
--0--0--0-0-0-0-0--0--0-0-0-0-|--0--0--0-0-0-0-0--0--0-0-0-0-|

  Q    E  Q    E  E  E     W                   Q    Q    H         
------------------------|-------------------|---------------------|
------------------------|-------------------|---------------------|
------------------------|-------------------|---------------------|
--1----0--1----0--1--0--|--5----------------|--3----0-------------|

  E  E  S S S S E  E  S S S S    E  E  S S S S E  E  S S S S  
------------------------------|------------------------------|
------------------------------|------------------------------|
------------------------------|------------------------------|
--0--0--0-0-0-0-0--0--0-0-0-0-|--0--0--0-0-0-0-0--0--0-0-0-0-|

  W                   Q    Q    H           E  E  S S S S E  E  S S S S  
-------------------|---------------------|------------------------------|
-------------------|---------------------|------------------------------|
-------------------|---------------------|------------------------------|
--5----------------|--3----0-------------|--0--0--0-0-0-0-0--0--0-0-0-0-|

  E  E  S S S S Q    Q       E  E  S S S S E  E  S S S S  
--------------------------|------------------------------|
--------------------------|------------------------------|
--------------------------|------------------------------|
--0--0--0-0-0-0-0---------|--0--0--0-0-0-0-0--0--0-0-0-0-|

  E  E  S S S S E  E  S S S S    E  E  S S S S E  E  S S S S  
------------------------------|------------------------------|
------------------------------|------------------------------|
------------------------------|------------------------------|
--0--0--0-0-0-0-0--0--0-0-0-0-|--0--0--0-0-0-0-0--0--0-0-0-0-|

  Q    E  Q    E  E  E     E  E  S S S S E  E  S S S S  
------------------------|------------------------------|
------------------------|------------------------------|
------------------------|------------------------------|
--1----0--1----0--1--0--|--0--0--0-0-0-0-0--0--0-0-0-0-|

  E  E  S S S S E  E  S S S S    E  E  S S S S E  E  S S S S  
------------------------------|------------------------------|
------------------------------|------------------------------|
------------------------------|------------------------------|
--0--0--0-0-0-0-0--0--0-0-0-0-|--0--0--0-0-0-0-0--0--0-0-0-0-|

  Q    E  Q    E  E  E     W                   Q    Q    H         
------------------------|-------------------|---------------------|
------------------------|-------------------|---------------------|
------------------------|-------------------|---------------------|
--1----0--1----0--1--0--|--5----------------|--3----0-------------|

  E  E  S S S S E  E  S S S S    E  E  S S S S E  E  S S S S  
------------------------------|------------------------------|
------------------------------|------------------------------|
------------------------------|------------------------------|
--0--0--0-0-0-0-0--0--0-0-0-0-|--0--0--0-0-0-0-0--0--0-0-0-0-|

  W                   Q    Q    H           E  E  S S S S E  E  S S S S  
-------------------|---------------------|------------------------------|
-------------------|---------------------|------------------------------|
-------------------|---------------------|------------------------------|
--5----------------|--3----0-------------|--0--0--0-0-0-0-0--0--0-0-0-0-|

  E  E  S S S S Q    Q       E  S S E  S S E  S S E  E   
--------------------------|-----------------------------|
--------------------------|-----------------------------|
--------------------------|-----------------------------|
--0--0--0-0-0-0-0---------|--5--5-5-5--5-5-5--5-5-5--3--|

  E  S S E  S S E  S S E  E     E  S S E  S S E  S S E  E   
-----------------------------|-----------------------------|
-----------------------------|-----------------------------|
-----------------------------|-----------------------------|
--5--5-5-5--5-5-5--5-5-5--3--|--5--5-5-5--5-5-5--5-5-5--3--|

  E  S S E  S S E  S S E  E     E  S S E  S S E  S S E  E   
-----------------------------|-----------------------------|
-----------------------------|-----------------------------|
-----------------------------|-----------------------------|
--5--5-5-5--5-5-5--5-5-5--3--|--5--5-5-5--5-5-5--5-5-5--3--|

  E  S S E  S S E  S S E  E     E  S S E  S S E  S S E  E   
-----------------------------|-----------------------------|
-----------------------------|-----------------------------|
-----------------------------|-----------------------------|
--5--5-5-5--5-5-5--5-5-5--3--|--5--5-5-5--5-5-5--5-5-5--3--|

  E  S S E  S S E  S S E  E     E  E  S S S S E  E  S S S S  
-----------------------------|------------------------------|
-----------------------------|------------------------------|
-----------------------------|------------------------------|
--5--5-5-5--5-5-5--5-5-5--3--|--0--0--0-0-0-0-0--0--0-0-0-0-|

  E  E  S S S S E  E  S S S S    E  E  S S S S E  E  S S S S  
------------------------------|------------------------------|
------------------------------|------------------------------|
------------------------------|------------------------------|
--0--0--0-0-0-0-0--0--0-0-0-0-|--0--0--0-0-0-0-0--0--0-0-0-0-|

  Q    E  Q    E  E  E     E  E  S S S S E  E  S S S S  
------------------------|------------------------------|
------------------------|------------------------------|
------------------------|------------------------------|
--1----0--1----0--1--0--|--0--0--0-0-0-0-0--0--0-0-0-0-|

  E  E  S S S S E  E  S S S S    E  E  S S S S E  E  S S S S  
------------------------------|------------------------------|
------------------------------|------------------------------|
------------------------------|------------------------------|
--0--0--0-0-0-0-0--0--0-0-0-0-|--0--0--0-0-0-0-0--0--0-0-0-0-|

  Q    E  Q    E  E  E     W                   Q    Q    H         
------------------------|-------------------|---------------------|
------------------------|-------------------|---------------------|
------------------------|-------------------|---------------------|
--1----0--1----0--1--0--|--5----------------|--3----0-------------|

  E  E  S S S S E  E  S S S S    W                   Q    Q    H         
------------------------------|-------------------|---------------------|
------------------------------|-------------------|---------------------|
------------------------------|-------------------|---------------------|
--0--0--0-0-0-0-0--0--0-0-0-0-|--5----------------|--3----0-------------|

  E  E  S S S S E  E  S S S S    E  E  S S S S Q    Q       W                  
------------------------------|--------------------------|-------------------||
------------------------------|--------------------------|-------------------||
------------------------------|--------------------------|-------------------||
--0--0--0-0-0-0-0--0--0-0-0-0-|--0--0--0-0-0-0-0---------|-------------------||
Colaboração e revisão:
  • Bruno
159 exibições

0 comentários

Ver todos os comentários

Conseguiu tocar?

0 Tocaram 0 Ainda não

Grave um vídeo tocando Fuck Like a Beaver e nos envie!

00:00 / 00:00
outros vídeos desta música
repetir qualidade Automático
Outros vídeos desta música
00:00 / 00:00
Automático

Cifra Club Pro

Aproveite o Cifra Club com benefícios exclusivos e sem anúncios
Cifra Club Pro
Aproveite o Cifra Club com benefícios exclusivos e sem anúncios
OK