Cifra Club

Aprenda

Killing Time

Metallica

Tab de baixo: Principal
G|-----------------------------------------------------------
D|-7--7--7\--------------------------------------------------
A|-0--0--0---------------------------------------------------
E|-----------5-5-5-5-5-5-5-5-5-3-5-3-3-5-5--5-5-5-5-5-5-5-5-5

G|-----------------------------------------------------------
D|-----------------------------------------------------------
A|----3----3-------------------------------------------------
E|-3-5--------1-1-1-1-1--3--3---3----------------------------

Segunda Parte:

G|-----------------------------------------------------------
D|-----------------------------------------------------------
A|------3----2----1----1--1-1-1-1-3---333333-555-555-555-555\
E|-5-3-5-----------------------------------------------------

G|-----------------------------------------------------------
D|---------------5--5--5-------------------------------------
A|-\1--1-1-1-1-1-3--3--3-------------------------------------
E|-----------------------------------------------------------

Terceira Parte:
          
G|-----------------------------------------------------------
D|-----------------------------------------------------------
A|-5--5--5-5-5---1------------------5--5--5-5-5--1-----------
E|---------------------1---0-0------------------------1----1-

G|-----------------------------------------------------------
D|-----------------------------------------------------------
A|----5--5--5-5-5--1-------------5--5--5-5-5--1------1-------
E|-3------------------1---0-0---------------------3-------3-5

Solo:

G|-----------------------------------------------------------
D|-----------------------------------------------------------
A|-------12\--------------------------------------5---5------
E|-5--------5--5--5\0--000000-0003--3-0-000000-000-----0003--

G|-----------------------------------------------------------
D|-----------------------------------------------------------
A|-----------------------------------------------------------
E|-2--1--1--1-1-1---3--3-3-3-3-3-3--5-5-5--5-5-5--5-5-5--5-5-

G|-----------------------------------------------------------
D|-----------------------------------------------------------
A|------------------------1----------------------------------
E|-5\1--1--1-1-1--3--3--3---3--3-3---5-------3--5--5--5--(5)\
Composição de Ray Davies
141 exibições

0 comentários

Ver todos os comentários

Conseguiu tocar?

0 Tocaram 0 Ainda não

Grave um vídeo tocando Killing Time e nos envie!

00:00 / 00:00
outros vídeos desta música
repetir qualidade Automático
Outros vídeos desta música
00:00 / 00:00
Automático

Cifra Club Pro

Aproveite o Cifra Club com benefícios exclusivos e sem anúncios
Cifra Club Pro
Aproveite o Cifra Club com benefícios exclusivos e sem anúncios
OK