Cifra Club

Aprenda

The Frayed Ends Of Sanity

Metallica

Cifra: Principal (violão e guitarra)
tom: E
E|------------------------------------------------------|
B|------------------------------------------------------|
G|----------5-----------4-------3-------(3)--3----------|
D|---2------5-----2-----4----2--3--2----(3)--3/////2----|
A|---2------3-----2-----2----2--1--2----(1)--1/////2----|
E|---0------------0----------0-----0---------------0----|
                            OH  EE OH        EE    OH

  P.M.......|     P.M...|     PM    PM..|
E|----------------------------------------------|
B|----------------------------------------------|
G|----------------------------------------------|
D|--------------3-----------3-------------------|Repeat X3
A|--------------1-----------1------4--------3\2-|
E|--0--0--0--0------0----0------0--2--0--0--1\0-|
  Then

  PM........|     PM....|
E|------------------------------------------------------|
B|------------------------------------------------------|
G|------------------------------------------------------|
D|--------------3-----------3-----------3--3--------3---|
A|--------------1-----------1-----------1--1--------1---|
E|--0--0--0--0------0----0------------------------------|


  P.M.......|     P.M...|     PM    PM..|       PM......|  PM...|
E|------------------------------------------------------------------------------------|
B|------------------------------------------------------------------------------------|
G|------------------------------------------------------------------------------------|
D|--------------3-----------3-----------------------------3--------3-x-x-3-3--3-3---3-|
A|--------------1-----------1------4--------3\2-----------1--------1-x-x-1-1--1-1---1-|
E|--0--0--0--0------0----0------0--2--0--0--1\0--0--0--0----0---0---------------------|


  P.M.......|     P.M...|     PM    PM..|
E|----------------------------------------------|
B|----------------------------------------------|
G|----------------------------------------------|
D|--------------3-----------3-------------------|
A|--------------1-----------1------4--------3---|
E|--0--0--0--0------0----0------0--2--0--0--1---|

Verses Riff1

    P.M......|     P.M.|    P.M.|    P.M..|  P.M..|           BEND
E|--------------------------------------------------------------------|
B|--------------------------------------------------------------------|
G|--------------------------------------------------------------------|
D|--2----------2-----------------------------------------------/\-----|
A|--2----------2---------7--------7--------7---------7--------/--\----|
E|--0--0---0-------0--0--6--0--0--6--0--0--5-0---0---5--0--0-2----2---|
   NEVER HUNGER NEVER PROSPER I HAVE FALLEN PREY  TO  FAILURE_______


   P.M.......|  P.M...|   P.M   P.M..|      P.M.........|   P.M.|  P.M  P.M.|
E|------------------------------------------------------------------------------|
B|------------------------------------------------------------------------------|
G|------------------------------------------------------------------------------|
D|-------------3---------3--------------------------------3-------1-------------|
A|-------------1---------1-----4--------3\2---------------1-------3----2-------3|
E|-0--0--0--0-----0---0-----0--2--0--0--1-0---0--0--0--0-----0--0---0--4-0--0--1|


   P.M......|     P.M.|    P.M.|    P.M..|  P.M..|           BEND
E|---------------------------------------------------------------------------|
B|---------------------------------------------------------------------------|
G|---------------------------------------------------------------------------|
D|--2----------2-----------------------------------------------/\------------|
A|--2----------2---------7--------7--------7---------7--------/--\-----------|
E|--0--0---0-------0--0--6--0--0--6--0--0--5-0---0---5--0--0-2----2----------|
  STRUGGLE WITHIN TRIGGERED AGAIN NOW THE CANDLE BURNS AT BOTH ENDS


  P.M.......|     P.M...|     PM    PM..|
E|----------------------------------------------|
B|----------------------------------------------|
G|----------------------------------------------|
D|--------------3-----------3-------------------|
A|--------------1-----------1------4--------3---|
E|--0--0--0--0------0----0------0--2--0--0--1---|


                              P.M.......|   P.M..|   P.M   P.M........|
E|---------------------------------------------------------------------------|
B|---------------------------------------------------------------------------|
G|----4-----3-----2----------------------------------------------------------|
D|----4-----3-----2--------6---------------3--------3------------------------|
A|----2-----1-----0--------6---------------1--------1-----4----------3-------|
E|-------------------------4---0--0--0--0-----0--0-----0--2--0--0----1-------|
  TWISTING TURNING UNDER SCHIZOPHRENIA


                                 PM.........|   PM.....|    PM    PM...|
E|----------------------------------------------------------------------------|
B|----------------------------------------------------------------------------|
G|---4-----3-----2------------------------------------------------------------|repeat x2
D|---4-----3-----2-----6----------------------3----------3--------------------|
A|---2-----1-----0-----6----------------------1----------1-------4--------3\2-|
E|---------------------4-----------0--0--0--0------0---0------0--2--0--0--1\0-|
  FALLING DEEP INTO DEMENTIA


   PM          PM...|          PM...|       PM..|             PM..|
E|---------------------------------------------------------------------------|
B|---------------------------------------------------------------------------|
G|---------------------------------------------------------------------------|
D|---------------------------------------------------------------------------|
A|------5/5--7--------5-/5---7--------5---5--------5--6--7--8-------5-/5---7-|
E|--0---3/3--5--0--0--3-/3---5--0--0--3---3--0--0--3--4--5--6--0--0-3-/3---5-|


  PM...|        PM...|      PM....|
E|-----------------------------------------------|
B|-----------------------------------------------|
G|-----------------------------------------------|
D|-----------------------------------------------|
A|-------5--5--2--------5--5--------5--6--7--8---|
E|-0--0-/3--3--0--0--0-/3--3--0--0--3--4--5--6---|

   CHORUS                                 P.M
E|---------------------------------------------------------------------------|
B|---------------------------------------------------------------------------|
G|---------------------------------------------------------------------------|
D|--2----------------4-----------------5---6---7---8----2-----------------4--|
A|--2----------------4-----------------5---6---7---8----2-----------------4--|
E|--0----------------2-----------------3---4---5---6----0-----------------2--|
  OLD HAB  -  ITS   RE - AP  -  PEAR_                  FIGHT - ING  THE  FEAR

                   P.M
E|---------------------------------------------------------------------------|
B|---------------------------------------------------------------------------|
G|---------------------------------------------------------------------------|
D|--------------5---6----7---8----2--------------5---------------4-----------|
A|--------------5---6----7---8----2--------------5---------------4-----------|
E|--------------3---4----5---6----0--------------3---------------2-----------|
   OF FEAR                      GROW -  ING_ CON-SPIR-A-CY___    EV'- RY -


             PM                                          PM..................
E|----------------------------------------------------------------------------|
B|----------------------------------------------------------------------------|
G|--------------------------------------7-------------------------------5---6-|
D|--------5---6--7--8----2--------------7--------------5---6---7---8----5---6-|
A|--------5---6--7--8----2--------------5--------------5---6---7---8----3---4-|
E|--------3---4--5--6----0-----------------------------3---4---5---6----------|
  ONES  AF - TER ME      FRAYED ENDS OF SAN-I -  TY  HEAR THEM CALL-ING


   PM...|        PM....|
E|---------------------------------------------------------------------------|
B|---------------------------------------------------------------------------|
G|-7---8---------------------------------------------------------------------|
D|-7---8------5---6---7---8--------------------------------------------------|
A|-5---6------5---6---7---8--------------------------------------------------|
E|------------3---4---5---6--------------------------------------------------|
           HEAR THEM CALL-ING


  PM......|   PM.....|   PM       PM....|     PM...|   PM...|
E|---------------------------------------------------------------------------|
B|---------------------------------------------------------------------------|
G|---------------------------------------------------------------------------|X 2
D|----------3----------3------------------------------3--------3x-3-3--3-3--3|
A|----------1----------1-------4-----------3\2--------1--------1x-1-1--1-1--1|
E|-0--0--0-----0----0------0---2---0---0---1-0-0-0-0-----0--0----------------|
  ME


   P.M......|     P.M.|    P.M.|    P.M..|  P.M..|           BEND
E|--------------------------------------------------------------------|
B|--------------------------------------------------------------------|
G|--------------------------------------------------------------------|
D|--2----------2-----------------------------------------------/\-----|
A|--2----------2---------7--------7--------7---------7--------/--\----|
E|--0--0---0-------0--0--6--0--0--6--0--0--5-0---0---5--0--0-2----2---|
   BIRTH OF TERROR DEATH OF MUCH MORE I'M THE SLAVE OF FEAR,MY CAPTOR


   P.M.......|  P.M...|   P.M   P.M..|      P.M.........|   P.M.|  P.M  P.M.|
E|------------------------------------------------------------------------------|
B|------------------------------------------------------------------------------|
G|------------------------------------------------------------------------------|
D|-------------3---------3--------------------------------3-------1-------------|
A|-------------1---------1-----4--------3\2---------------1-------3----2-------3|
E|-0--0--0--0-----0---0-----0--2--0--0--1-0---0--0--0--0-----0--0---0--4-0--0--1|


   P.M......|     P.M.|    P.M.|    P.M..|  P.M..|           BEND
E|---------------------------------------------------------------------------|
B|---------------------------------------------------------------------------|
G|---------------------------------------------------------------------------|
D|--2----------2-----------------------------------------------/\------------|
A|--2----------2---------7--------7--------7---------7--------/--\-----------|
E|--0--0---0-------0--0--6--0--0--6--0--0--5-0---0---5--0--0-2----2----------|
  NEVER WARNINGS SPREADING ITS WINGS AS I WAIT FOR THE HORROR SHE BRINGS


  P.M.......|     P.M...|     PM    PM..|
E|----------------------------------------------|
B|----------------------------------------------|
G|----------------------------------------------|
D|--------------3-----------3-------------------|
A|--------------1-----------1------4--------3---|
E|--0--0--0--0------0----0------0--2--0--0--1---|


                              P.M.......|   P.M..|   P.M   P.M........|
E|---------------------------------------------------------------------------|
B|---------------------------------------------------------------------------|
G|----4-----3-----2----------------------------------------------------------|
D|----4-----3-----2--------6---------------3--------3------------------------|
A|----2-----1-----0--------6---------------1--------1-----4----------3-------|
E|-------------------------4---0--0--0--0-----0--0-----0--2--0--0----1-------|
  LOSS OF INTEREST,QUESTION,WONDER


                                 PM.........|   PM.....|    PM    PM...|
E|----------------------------------------------------------------------------|
B|----------------------------------------------------------------------------|
G|---4-----3-----2------------------------------------------------------------|repeat x2
D|---4-----3-----2-----6----------------------3----------3--------------------|
A|---2-----1-----0-----6----------------------1----------1-------4--------3\2-|
E|---------------------4-----------0--0--0--0------0---0------0--2--0--0--1\0-|
 WAVES OF FEAR THE PULL ME UNDER


   PM          PM...|          PM...|       PM..|             PM..|
E|---------------------------------------------------------------------------|
B|---------------------------------------------------------------------------|
G|---------------------------------------------------------------------------|
D|---------------------------------------------------------------------------|
A|------5/5--7--------5-/5---7--------5---5--------5--6--7--8-------5-/5---7-|
E|--0---3/3--5--0--0--3-/3---5--0--0--3---3--0--0--3--4--5--6--0--0-3-/3---5-|


  PM...|        PM...|      PM....|
E|-----------------------------------------------|
B|-----------------------------------------------|
G|-----------------------------------------------|
D|-----------------------------------------------|
A|-------5--5--2--------5--5--------5--6--7--8---|
E|-0--0-/3--3--0--0--0-/3--3--0--0--3--4--5--6---|

   CHORUS                                 P.M
E|---------------------------------------------------------------------------|
B|---------------------------------------------------------------------------|
G|---------------------------------------------------------------------------|
D|--2----------------4-----------------5---6---7---8----2-----------------4--|
A|--2----------------4-----------------5---6---7---8----2-----------------4--|
E|--0----------------2-----------------3---4---5---6----0-----------------2--|
  OLD HAB  -  ITS   RE - AP  -  PEAR_                  FIGHT - ING  THE  FEAR


                   P.M
E|---------------------------------------------------------------------------|
B|---------------------------------------------------------------------------|
G|---------------------------------------------------------------------------|
D|--------------5---6----7---8----2--------------5---------------4-----------|
A|--------------5---6----7---8----2--------------5---------------4-----------|
E|--------------3---4----5---6----0--------------3---------------2-----------|
   OF FEAR                      GROW -  ING_ CON-SPIR-A-CY___    EV'- RY -


             PM                                          PM..................
E|----------------------------------------------------------------------------|
B|----------------------------------------------------------------------------|
G|--------------------------------------7-------------------------------5---6-|
D|--------5---6--7--8----2--------------7--------------5---6---7---8----5---6-|
A|--------5---6--7--8----2--------------5--------------5---6---7---8----3---4-|
E|--------3---4--5--6----0-----------------------------3---4---5---6----------|
  ONES  AF - TER ME      FRAYED ENDS OF SAN-I -  TY  HEAR THEM CALL-ING


   PM...|        PM....|
E|---------------------------------------------------------------------------|
B|---------------------------------------------------------------------------|
G|-7---8---------------------------------------------------------------------|
D|-7---8------5---6---7---8--------------------------------------------------|
A|-5---6------5---6---7---8--------------------------------------------------|
E|------------3---4---5---6--------------------------------------------------|
           HEAR THEM CALL-ING


  PM......|   PM.....|   PM       PM....|     PM...|   PM...|
E|---------------------------------------------------------------------------|
B|---------------------------------------------------------------------------|
G|---------------------------------------------------------------------------|X 2
D|----------3----------3------------------------------3--------3x-3-3--3-3--3|
A|----------1----------1-------4-----------3\2--------1--------1x-1-1--1-1--1|
E|-0--0--0-----0----0------0---2---0---0---1-0-0-0-0-----0--0----------------|
  ME

          PM......|            PM.........|
E|----------------------------------------------------|
B|----------------------------------------------------|
G|----------------------------------------------------|X 4
D|-2-h4p-2--------------------------------------------|
A|----------5---4-2---2-h-4-p-2--------------2--5-----|
E|-------------------------------5---3--2--5----------|

                     PM......|          PM...........|
E|-----------------------------------------------------------|
B|-----------------------------------------------------------|
G|-----------------------------------------------------------|
D|------------4h6p4------------------------------------------|
A|------4-------------7--6--4----4h6p4-----------------4---7-|
E|---------------------------------------7--5---4---7--------|

          PM......|            PM.........|
E|----------------------------------------------------|
B|----------------------------------------------------|
G|----------------------------------------------------|
D|-2-h4p-2--------------------------------------------|
A|----------5---4-2---2-h-4-p-2--------------2--5-----|
E|-------------------------------5---3--2--5----------|

                                       PM......|         PM............|
E|--------------|------------------------------------------------------------|
B|--------------|------------------------------------------------------------|
G|--------------|-------------2h4p2------------------------------------------|
D|--------------|---0---------2h4p2-----4--2--0---0h2p0-------------------0h4|
A|--------------|---2-------------------5--4--2---2h4p0---4---2---0---4---2h5|
E|----2-----2---|-----------------------------------------5---3---2---5------|

                   PM.......|         PM.............|
E|----------------------------------------------------------|
B|----------------------------------------------------------|
G|-----------4h6p4------------------------------------------|
D|--2--------4h6p4---6--4--2----2h4p2-------------------2h6-|
A|--4----------------7--6--4----4h6p4---6---4---2---6---4h7-|
E|--------------------------------------7---5---4---7-------|

                 PM......|              PM......|                 PM......|
E|---------------------------------------------------------------------------|
B|---------------------------------------------------------------------------|
G|-----5-h7p-5------------------5-h7p-5------------------6-h8p-6-------------|
D|-7---5-h7p-5---7--5--3----7---5-h7p-5--7--5--3------8--6-h8p-6---8--6--4---|
A|-5-------------8--7--5----5------------8--7--5------6------------9--8--6---|
E|---------------------------------------------------------------------------|

               PM......|                                              PM.....
E|----------------------|----------------------------------------------------|
B|----------------------|---8---7-h8p-7---8---7-h8p-7---8-p-7----7-h8p-7-----|
G|----6-h8p-6-----------|---9---7-h9p-7---9---7-h9p-7---9-p-7----7-h9p-7----9|
D|-8--6-h8p-6---8--6--4-|---9---7-h9p-7---9---7-h9p-7---9-p-7----7-h9p-7---10|
A|-6------------9--8--6-|--------------------------------------------------10|
E|----------------------|----------------------------------------------------|

  PM....|           PM...............|
E|---------------------------------------------------------------------------|
B|---------------------------------------------------------------------------|
G|---------4--h5p-4---------------------4--7----9----------------------------|
D|-7--5----5--h7p-5---7--5--4---4--7----5--7----9----------------------------|
A|-7--5----7--h9p-7---9--7--5---5--9----7--9---10----------------------------|
E|-9--7--------------10--8--7---7--10----------------------------------------|

  PM..........|       PM......|        PM....|      PM...|    PM..|
E|---------------------------------------------------------------------------|
B|---------------------------------------------------------------------------|
G|---------------------------------------------------------------------------|
D|---------------------------------------------------------------------------|
A|--------------7p5h7-----------7p5h7----------7p5h7-------------------------|
E|-0---0-0-0-0---------0--0--0----------0-0-0---------0--0--7--0--0----------|

     PM...|       PM......|     PM......|       PM..|     PM
E|-----------------------------------------------------------|
B|-----------------------------------------------------------|
G|-----------------------------------------------------------|
D|-----------------------------------------------------------|
A|-----------7p5h7---------7p5h7----------7p5h7--------6-----|
E|-6--0-0-0--------0--0--0-------0--0--0---------7--7------6-|

       PM....|       PM.....|        PM.....|       PM......|         PM....|
E|---------------------------------------------------------------------------|
B|---------------------------------------------------------------------------|
G|---------------------------------------------------------------------------|
D|---------------------------------------------------------------------------|
A|-5p0---------7p5h7-----------7p5h-7---------7p5h-7-------------------------|
E|------0-0-0---------0--0--0----------0-0-0----------0-0--7--0-0--6--0-0-0--|

         PM...|      PM.....|                                            WB
E|--------------------------------------------------|------------------------|
B|--------------------------------------------------|----------------------//|
G|--------------------------------------------------|--------------------5//-|
D|--------------------------------------------------|--------------------7/--|
A|-7p5h7--------7p5h7----------7p5h7--------6-------|---7-----------7p5------|
E|-------0-0-0--------0--0--0---------7--7-----6--6-|------0--0--0-----------|

  LEAD GUITAR PLAYS SOLO, RHYTHM PLAYS THE RHYTHM (UNDERNEATH)

E|-t14p10p7----t14p10p7---t14--(14)p10p7--t14p10p7-t14/15p10p7-t14/15p10p7---|
B|---------------------------------------------------------------------------|
G|---------------------------------------------------------------------------|
D|---------------------------------------------------------------------------|
A|---------------------------------------------------------------------------|
E|---------------------------------------------------------------------------|

E|-t14/15p10p7h(10)-t17p10p7-t14/15p10p7--t14t14p10p7-t14/15p10p7-t14-t14p10p|
B|---------------------------------------------------------------------------|
G|---------------------------------------------------------------------------|
D|---------------------------------------------------------------------------|
A|---------------------------------------------------------------------------|
E|---------------------------------------------------------------------------|

E|-7-t15p10p7-t14p10p7-t15p10p7-t14p10p7-t15p10p7-t14p10p7-t15p10p7----5-----|
B|---------------------------------------------------------------------5-----|
G|---------------------------------------------------------------------------|
D|---------------------------------------------------------------------------|
A|---------------------------------------------------------------------------|
E|---------------------------------------------------------------------------|

                 B                        B       B
E|---------------------------------------/------/\/\full/\/\-----------------|
B|-h-2--(2)/---17/\/\/\full/\/\/\-----17/----17/---------------(17)--------17|
G|---------------------------------------------------------------------------|
D|---------------------------------------------------------------------------|
A|---------------------------------------------------------------------------|
E|---------------------------------------------------------------------------|

                                          B                             B
E|-14---17p14-------14-------------------/-----------------------------/-----|
B|--------------17------17p14--17p14--17/---14------------------------/------|
G|----------------------------------------------16--14--16p14---14-16/-------|
D|------------------------------------------------------------16-------------|
A|---------------------------------------------------------------------------|
E|---------------------------------------------------------------------------|

                             B                                 B
E|-----------17p14----------/---------------------------------/--------------|
B|-14-17p14--------17p14---/---14h17p14----------------------/--14-14h17p14--|
G|-----------------------17-------------16---14-------14--16/----------------|
D|-----------------------------------------------16--------------------------|
A|---------------------------------------------------------------------------|
E|---------------------------------------------------------------------------|

       B
E|----/----------------------------------------------------------------------|
B|---/--14-17p14----14-17p14----14-17p14----14h17p14----14h17p-14----14h1p14-|
G|-17------------17----------17----------16----------16-----------16---------|
D|---------------------------------------------------------------------------|
A|---------------------------------------------------------------------------|
E|---------------------------------------------------------------------------|

E|---------------------------------------------------------------------------|
B|-----17p14---14--x--x-x-14---14-(14)--16---14---------------16----14-------|
G|-16----------14--x--x-x-14---14-(14)--16---14---------------16----14-------|
D|-------------14--x--x-x-14---14-(14)--------------------14---------------14|
A|---------------------------------------------------------------------------|
E|---------------------------------------------------------------------------|

E|---------------------------------------------------------------------------|
B|-16--17p14h17p14h17p14h17p14h17p14-----------------------------------------|
G|-16----------------------------------------12\11------11\9------9\7-----7\6|
D|--------------------------------------14----------12--------11-------9-----|
A|---------------------------------------------------------------------------|
E|---------------------------------------------------------------------------|

E|---------------------------------------------------------------------------|
B|---------------------------------------------------------------------------|
G|----6\4-----4\2-----2\0----------------------------------------------------|
D|-7-------6-------4-------2---0--2/4----2-----4----5---7---(7)----(7)-----7-|
A|---------------------------------------------------------------------------|
E|---------------------------------------------------------------------------|

               BD             BD               BD                BD
E|------------/\--------------/\---------------/\----------------/\----------|
B|-----------/--\------------/--\-------------/--\--------------/--\---------|
G|-6---7----7----(7)p5--7---7---(7)p5----7---7---(7)p5----7----7----(7)p5---7|
D|---------------------------------------------------------------------------|
A|---------------------------------------------------------------------------|
E|---------------------------------------------------------------------------|

        BD
E|------/\------------8--7--5---------/10-9-7---------/12-10-9--------/14-12-|
B|-----/--\--------------------9--7--5----------10-9-7---------12-10-8-------|
G|----7---(7)p5-(5)----------------------------------------------------------|
D|---------------------------------------------------------------------------|
A|---------------------------------------------------------------------------|
E|---------------------------------------------------------------------------|

E|-10---------/15-14-12---------/17-15-14--------------19-17-15---------/21--|
B|-----14-12-9----------15-14-12----------17-15-14--------------19-17-15-----|
G|-------------------------------------------------16------------------------|
D|---------------------------------------------------------------------------|
A|---------------------------------------------------------------------------|
E|---------------------------------------------------------------------------|

E|-19-17------------20p17----27-20p17-20p17----17-20p17-20p17----17-20p17-20p|
B|-------21p19p(17)-------20----------------20----------------20-------------|
G|---------------------------------------------------------------------------|
D|---------------------------------------------------------------------------|
A|---------------------------------------------------------------------------|
E|---------------------------------------------------------------------------|

                                       BD\          BD\            B
E|-17---17-20p17-20p17----17-20p17-20--20201717-202020-(20)p17-20--20--17-20-|
B|----20---------------20----------------------------------------------------|
G|---------------------------------------------------------------------------|
D|---------------------------------------------------------------------------|
A|---------------------------------------------------------------------------|
E|---------------------------------------------------------------------------|

     B        B
E|-20-17h20-20-17h2020-17h201720p17---17h20p17h20p17-17h2017h20p17----17h20p-|
B|---------------------------------20------------------------------20--------|
G|---------------------------------------------------------------------------|
D|---------------------------------------------------------------------------|
A|---------------------------------------------------------------------------|
E|---------------------------------------------------------------------------|

                     END OF LEAD SOLO
           B       B        B       B
E|-17--17-/-17-17-/-17--17-/17-17-/|
B|-----20/-----20/------20/----20/-|
G|---------------------------------|
D|---------------------------------|
A|---------------------------------|
E|---------------------------------|

   RYHTHM PLAYED DURING SOLO

  PM.........................................................................
E|---------------------------------------------------------------------------|
B|---------------------------------------------------------------------------|
G|---------------------------------------------------------------------------|
D|---------------------------------------------------------------------------|
A|---------------------------------------------------------------------------|
E|-0----0--0--0------0--0----0---0--0--7--0--0--6---0--0---0---0--0--0--0--0-|

  PM......|                               PM........................|      PM
E|---------------------------------------------------------------------------|
B|---------------------------------------------------------------------------|
G|---------------------------------------------------------------------------|
D|--------------------------------------------------------------------7/-8---|
A|-----------------------------------------------6--0---5---0---------7/-8---|
E|-7--0--0----------------------------------6--0---------------6--0---5/-6--0|

        PM...........|   PM    PM...................|  PM.|
E|---------------------------------------------------------------------------|
B|---------------------------------------------------------------------------|
G|---------------------------------------------------------------------------|
D|---------------------9-----4-----------------------------------------------|
A|---------------------9-----4-----------------------4---------3-------------|
E|------0--0--0--0--0--7--0--2--2-2-2----2-2-2---2-2----2-2-------2-2-2--2-2-|

E|---------------------------------------------------------------------------|
B|---------------------------------------------------------------------------|
G|---------------------------------------------------------------------------|
D|-------------------------------------------------2-------------------------|
A|----------4-------3-----------------------4------2-------------------------|
E|-2---2--2---2--2-----2-2-2----2-2-2---2-2---2-2--0--0-0-0----0-0-0---0-0-7-|

                                                                           PM
E|---------------------------------------------------------------------------|
B|---------------------------------------------------------------------------|
G|---------------------------------------------------------------------------|
D|---------------------------------------------------------------------------|
A|---------------------------------------------------------------------------|
E|-0-0---6---0-0-0-----0-0-0--0-0-7--0-0---6---0-0-0---0-0-0--0-0-7--0-0---6-|

    PM........................|                          PM...........
E|---------------------------------------------------------------------------|
B|---------------------------------------------------------------------------|
G|---------------------------------------------------------------------------|
D|------------------------------8---------------------9------4---------------|
A|-------6---0---5---0----------8---------------------9------4---------------|
E|---0-------------------6---0--6---0---0-0-0---0--0--7--0---2---2-2-2--2-2-2|

   PM..|
E|---------------------------------------------------------------------------|
B|---------------------------------------------------------------------------|
G|---------------------------------------------------------------------------|
D|---------------------------------------------------------------------------|
A|-------4-------3----------------------4------------------------------------|
E|--2-2-----2-2-----2-2-2---2-2-2---2-2----2-2-------------------------------|

E|---------------------------------------------------------------------------|
B|---------------------------------------------------------------------------|
G|---------------------------------------------------------------------------|
D|-2-------------------------------------------------------------------------|
A|-2-------------------------------------------------------------------------|
E|-0---0-0-0-----0-0-0---0-0-7---0-0--6----0-0-0---0-0-0--0-0-7--0-0---------|

           PM....................|
E|---------------------------------------------------------------------------|
B|---------------------------------------------------------------------------|
G|---------------------------------------------------------------------------|
D|------4--------------------------------------------------------------------|
A|------4-------------------------4-------3---------------------4------------|
E|------2---2-2-2----2-2-2----2-2-----2-2----2-2-2---2-2-2--2-2----2--2------|

                 PM...................|   PM....|     PM...................|
E|---------------------------------------------------------------------------|
B|---------------------------------------------------------------------------|
G|---------------------------------------------------------------------------|
D|------------2--------------------------------------------------------------|
A|------------0---0-0-0----0-0-0---0-0--7--0--0----6---0-0-0---0-0-0---0-0--7|
E|------------0--------------------------------------------------------------|

  PM                               PM.................................|
E|---------------------------------------------------------------------------|
B|---------------------------------------------------------------------------|
G|---------------------------------------------------------------------------|
D|------------------------------------------------------------------------8--|
A|-0--0------------------------------6---0-------5------5-----6p-----0----8--|
E|-------------------------------------------4------3---------------------6--|

        PM...............|   PM..|      PM....................|  PM..|     PM
E|---------------------------------------------------------------------------|
B|---------------------------------------------------------------------------|
G|---------------------------------------------------------------------------|
D|---------------------------------------------------------------------------|
A|-------0---0-0-0----0-0--7--0-0---6----0-0-0----0-0-0---0-0--7--0-0--6---0-|
E|---------------------------------------------------------------------------|

  PM...............|  PM                                    PM...............
E|---------------------------------------------------------------------------|
B|---------------------------------------------------------------------------|
G|---------------------------------------------------------------------------|
D|---------------------------------------------------------------------------|
A|-0-0--0-0-0--0-0--7--0-0-----------------------------------6---0------5---5|
E|------------------------------------------------------------------4----3---|

                    END OF RHYTHM
  PM......|       PM......|
E|----------------------------|
B|----------------------------|
G|-----------9-11-------------|
D|-----------9-11----------2--|
A|-6p---0----7--9----------2--|
E|-----------------2-2-2-2-0--|


       PM....|   PM    PM....|   PM         PM...........|
E|----------------------------------------------------------|
B|----------------------------------------------------------|
G|--*------------------------------------------------------*|X 3
D|--*5----------7-----9---------5------7---9---------------*|
A|---7----------5-----7---------7------5---7----------------|
E|------0--0------0-----0---0-----0----------0---0---0--0---|


    PM....|   PM   PM....|                             PM....|         PM....
E|---------------------------------------------------------------------------|
B|---------------------------------------------------------------------------|
G|--------------------------------------4---4--------------------------------|
D|-5--------7-----9--------5------7/9---4---4----2h4p2-----------------------|
A|-7--------5-----7--------7------5/7---2---2-----------5-4-2---2h-4p2-------|
E|----0--0-----0-----0--0------0----------------------------------------5-3--|


  PM...|                            PM..........|                        PM
E|---------------------------------------------------------------------------|
B|---------------------------------------------------------------------------|
G|--------------------------------------------------------------7h-9p-7------|
D|--------------2h4p2-------------------------------------------7h-9p-7---9--|
A|------2h5-----------5-4-2---2h4p2---------------2h-5-------------------10--|
E|-2--5-------------------------------5--3--2--5-----------------------------|


   PM....|
E|---------------------------------------------------------------------------|
B|---------------------------------------------------------------------------|
G|---------------------------------------------------------------------------|
D|--7---5----5h7p5----------------------5h--9--------------------------------|
A|--9---7----7h9p7----9---7---5----9----7h-10--------------------------------|
E|-------------------10---8---7---10-----------------------------------------|


      PM....|   PM    PM....|  PM       PM..........|
E|---------------------------------------------------|
B|---------------------------------------------------|
G|-*------------------------------------------------*|
D|-*-5--------7-----9--------5-----7--7-------------*|
A|---7--------5-----7--------7-----5--9--------------|
E|------0--0-----0-----0--0-----0--------0--0--0--0--|


        PM                        PM......|         PM.........|
E|----------------------------------------------------------------------------|
B|----------------------------------------------------------------------------|
G|-----------------9----9----2h4p2--------------------------------------2h4p2-|
D|----5------7/9---9----9----------5--4--2---2h-4p2--------------2---5--------|
A|----7------5/7---7----7----------------------------5--3--2--5---------------|
E|-------0--------------------------------------------------------------------|


    PM......|          PM.........|                     PM.........|
E|---------------------------------------------------------------------------|
B|---------------------------------------------------------------------------|
G|--------------------------------------------------2h4p2--------------------|
D|---5--4--2-----2h4p2-------------2--h5------------2h4p2---4--2--0---0-h2p0-|
A|----------------------5--3--2--5--------------------------5--4--2---2-h4p2-|
E|---------------------------------------------------------------------------|


   PM.....................|                  PM......|
E|---------------------------------------------------------------------------|
B|---------------------------------------------------------------------------|
G|--------------------------4----4----2h4p2----------------------------------|
D|------------------0---4---4----4----2h4p2---4--2--0----0h2p0--------------0|
A|---4---2---0---4--2---5---2----2------------5--4--2----2h4p2---4--2--0--4--|
E|---5---3---2---5-----------------------------------------------5--3--2--2-1|


                                                      PM......|  PM...|   PM
E|------------------------------------------------|--------------------------|
B|------------------------------------------------|--------------------------|
G|----4---4---3---3----------------3--3---------3-|--------------------------|
D|-4--4---4---3---3----------------3--3---------3-|------------3-------3-----|
A|----2---2---1---1----------------1--1---------1-|------------1-------1----4|
E|-0----------------------------------------------|----0-0-0-0----0--0----0-2|


  PM...|     PM...|  PM...|  PM PM...|       PM....|   PM..|
E|---------------------------------------------------------------------------|
B|---------------------------------------------------------------------------|
G|----------------------------------------r----------------------------------|
D|-----------------3-------3--------------e|----------3--------3-x-x-3-3-3-3-3|
A|-------3\2-------1-------1----4-------3\s\2--------1--------1-x-x-1-1-1-1-1|
E|-0--0--1-0-0-0-0----0--0----0-2-0-0---1\t\0-0-0-0-----0--0-----------------|


   P.M......|     P.M.|    P.M.|    P.M..|  P.M..|           BEND
E|--------------------------------------------------------------------|
B|--------------------------------------------------------------------|
G|--------------------------------------------------------------------|
D|--2----------2-----------------------------------------------/\-----|
A|--2----------2---------7--------7--------7---------7--------/--\----|
E|--0--0---0-------0--0--6--0--0--6--0--0--5-0---0---5--0--0-2----2---|
    INTO RUIN I AM SINKING    HOSTAGE  OF  THIS   NAMELESS   FEELING


   P.M.......|  P.M...|   P.M   P.M..|      P.M.........|   P.M.|  P.M  P.M.|
E|------------------------------------------------------------------------------|
B|------------------------------------------------------------------------------|
G|------------------------------------------------------------------------------|
D|-------------3---------3--------------------------------3-------1-------------|
A|-------------1---------1-----4--------3\2---------------1-------3----2-------3|
E|-0--0--0--0-----0---0-----0--2--0--0--1-0---0--0--0--0-----0--0---0--4-0--0--1|


   P.M......|     P.M.|    P.M.|    P.M..|  P.M..|           BEND
E|---------------------------------------------------------------------------|
B|---------------------------------------------------------------------------|
G|---------------------------------------------------------------------------|
D|--2----------2-----------------------------------------------/\------------|
A|--2----------2---------7--------7--------7---------7--------/--\-----------|
E|--0--0---0-------0--0--6--0--0--6--0--0--5-0---0---5--0--0-2----2----------|
    HELL IS SET FREE, FLOODED I'LL BE FELL THE UNDERTOW INSIDE ME


  P.M.......|     P.M...|     PM    PM..|
E|----------------------------------------------|
B|----------------------------------------------|
G|----------------------------------------------|
D|--------------3-----------3-------------------|
A|--------------1-----------1------4--------3---|
E|--0--0--0--0------0----0------0--2--0--0--1---|


                              P.M.......|   P.M..|   P.M   P.M........|
E|---------------------------------------------------------------------------|
B|---------------------------------------------------------------------------|
G|----4-----3-----2----------------------------------------------------------|
D|----4-----3-----2--------6---------------3--------3------------------------|
A|----2-----1-----0--------6---------------1--------1-----4----------3-------|
E|-------------------------4---0--0--0--0-----0--0-----0--2--0--0----1-------|
  HEIGHT,HELL,TIME,HASTE,TERROR,TENSION


                                 PM.........|   PM.....|    PM    PM...|
E|----------------------------------------------------------------------------|
B|----------------------------------------------------------------------------|
G|---4-----3-----2------------------------------------------------------------|repeat x2
D|---4-----3-----2-----6----------------------3----------3--------------------|
A|---2-----1-----0-----6----------------------1----------1-------4--------3\2-|
E|---------------------4-----------0--0--0--0------0---0------0--2--0--0--1\0-|
 LIFE,DEATH,WANT,WASTE,MASS DEPRESION


   PM          PM...|          PM...|       PM..|             PM..|
E|---------------------------------------------------------------------------|
B|---------------------------------------------------------------------------|
G|---------------------------------------------------------------------------|
D|---------------------------------------------------------------------------|
A|------5/5--7--------5-/5---7--------5---5--------5--6--7--8-------5-/5---7-|
E|--0---3/3--5--0--0--3-/3---5--0--0--3---3--0--0--3--4--5--6--0--0-3-/3---5-|


  PM...|        PM...|      PM....|
E|-----------------------------------------------|
B|-----------------------------------------------|
G|-----------------------------------------------|
D|-----------------------------------------------|
A|-------5--5--2--------5--5--------5--6--7--8---|
E|-0--0-/3--3--0--0--0-/3--3--0--0--3--4--5--6---|


   CHORUS                                 P.M
E|---------------------------------------------------------------------------|
B|---------------------------------------------------------------------------|
G|---------------------------------------------------------------------------|
D|--2----------------4-----------------5---6---7---8----2-----------------4--|
A|--2----------------4-----------------5---6---7---8----2-----------------4--|
E|--0----------------2-----------------3---4---5---6----0-----------------2--|
  OLD HAB  -  ITS   RE - AP  -  PEAR_                  FIGHT - ING  THE  FEAR


                   P.M
E|---------------------------------------------------------------------------|
B|---------------------------------------------------------------------------|
G|---------------------------------------------------------------------------|
D|--------------5---6----7---8----2--------------5---------------4-----------|
A|--------------5---6----7---8----2--------------5---------------4-----------|
E|--------------3---4----5---6----0--------------3---------------2-----------|
   OF FEAR                      GROW -  ING_ CON-SPIR-A-CY___    MY -SELF


             PM                                          PM..................
E|----------------------------------------------------------------------------|
B|----------------------------------------------------------------------------|
G|--------------------------------------7-------------------------------5---6-|
D|--------5---6--7--8----2--------------7--------------5---6---7---8----5---6-|
A|--------5---6--7--8----2--------------5--------------5---6---7---8----3---4-|
E|--------3---4--5--6----0-----------------------------3---4---5---6----------|
  IS    AF - TER ME      FRAYED ENDS OF SAN-I -  TY  HEAR THEM CALL-ING


   PM...|        PM....|
E|---------------------------------------------------------------------------|
B|---------------------------------------------------------------------------|
G|-7---8---------------------------------------------------------------------|
D|-7---8------5---6---7---8--------------------------------------------------|
A|-5---6------5---6---7---8--------------------------------------------------|
E|------------3---4---5---6--------------------------------------------------|
           HEAR THEM CALL-ING


  PM......|   PM.....|   PM       PM....|     PM...|   PM...|
E|---------------------------------------------------------------------------|
B|---------------------------------------------------------------------------|
G|---------------------------------------------------------------------------|X 2
D|----------3----------3------------------------------3--------3x-3-3--3-3--3|
A|----------1----------1-------4-----------3\2--------1--------1x-1-1--1-1--1|
E|-0--0--0-----0----0------0---2---0---0---1-0-0-0-0-----0--0----------------|
  ME

   CODA                                                                 PM...
E|---------------------------------------------------------------------------|
B|---------------------------------------------------------------------------|
G|--------------7-------7-7--------------------------------7-----------------|
D|-2---2-2------7-------7-7----5---4---7---8----2----------7----------5-6-7-8|
A|-2---2-2------5-------5-5----5---6---7---8----2----------5----------5-6-7-8|
E|-0---0-0---------------------3---6---5---6----0---------------------3-4-5-6|
  FRAYED ENDS OF SANITY_____ HEAR THEM CALLING,FRAYED ENDS OF SANITY,HEAR THEM CALLING


  PM......|   PM.|    PM.........|    PM....|       PM.........|    PM......|
E|---------------------------------------------------------------------------|
B|---------------------------------------------------------------------------|
G|-5-6-7-8-------------------------------------------------------------------|
D|-5-6-7-8--5-6-7-8-----------------3---------3------------------------------|
A|-3-4-5-6--5-6-7-8-----------------1---------1---------4--------3\2---------|
E|----------3-4-5-6----0--0--0--0-------0--0---------0--2--0--0--1\0--0--0--0|
           HEAR THEM
           CALLING ME


      PM...|      PM.........|    PM.....|   PM....|    PM......|    PM....|
E|---------------------------------------------------------------------------|
B|---------------------------------------------------------------------------|
G|---------------------------------------------------------------------------|
D|--3---------3----------------------------3---------3----------------------3|
A|--1---------1-------4--------3\2---------1---------1-----4------3\2-------1|
E|-----0--0--------0--2--0--0--1\0--0-0-0-----0---0------0-2-0-0--1\0-0-0-0--|


   PM....|                    PM...|    PM......|    PM......|      PM.....|
E|---------------------------------------------------------------------------|
B|---------------------------------------------------------------------------|
G|---------------------------------------------------------------------------|
D|---------3--X-X-X-3-X-3-X-3--------3------------3-------------------------3|
A|---------1--X-X-X-1-X-1-X-1--------1------------1------------3\2----------1|
E|--0---0-----X-X-X---X---X----0--0-------0--2P0------0-2-0-0--1\0---0-0-0---|


    PM.....|   PM.......|      PM......|   PM....|      PM.........|
E|---------------------------------------------------------------------------|
B|---------------------------------------------------------------------------|
G|---------------------------------------3--------3--------------------------|
D|-----------3---------------------------3--------3--------------------------|
A|-----------1-----4------3\2------------1--------1---------4--------3\2-----|
E|----0---0------0-2-0-0--1\0---0--0--0------0--0--------0--2--0--0--1\0-----|


  PM.....................|
E|-------------------------------|
B|-------------------------------|
G|-------------------------------|
D|-------------------------------|
A|-2-2-2-2-2-2-2-2-2-2-2-2-0-4-2-|
E|-0-0-0-0-0-0-0-0-0-0-0-0---2-0-|


       PM...| PM  PM...| PM      PM.......|
E|------------------------------------------|
B|------------------------------------------|
G|-*---------------------------------------*|X 3
D|-*-5-------7---9------5-----7-9----------*|
A|---7-------5---7------7-----5-7-----------|
E|------0--0---0---0--0----0-------0-0-0-0--|


     PM....|   PM   PM      PM      PM          PM...|  PM  PM....|  PM
E|---------------------------------------------------------------------------|
B|---------------------------------------------------------------------------|
G|-----------7----9------------7--9-----------7---------------------7---7---9|
D|--5--------7----9--------5---7--9-----------5-------7----9--------5---7---9|
A|--7--------5----7--------7---5--7-----------7-------5----7--------7---5---7|
E|-----0--0-----0----0--0----0-------0--0--0-----0--0----0----0--0----0-----0|

Composição de James Hetfield / Kirk Hammett / Lars Ulrich
Colaboração e revisão:
  • Felipe Lima
  • Lucas Luis
9.725 exibições
    • ½ Tom
    • A
    • Bb
    • B
    • C
    • Db
    • D
    • Eb
    • E
    • F
    • F#
    • G
    • Ab
  • Adicionar à lista

    0 comentários

    Ver todos os comentários

    Conseguiu tocar?

    3 Tocaram 0 Ainda não

    Grave um vídeo tocando The Frayed Ends Of Sanity e nos envie!

    00:00 / 00:00
    outros vídeos desta música
    repetir qualidade Automático
    Outros vídeos desta música
    00:00 / 00:00
    Automático

    Cifra Club Pro

    Aproveite o Cifra Club com benefícios exclusivos e sem anúncios
    Cifra Club Pro
    Aproveite o Cifra Club com benefícios exclusivos e sem anúncios
    OK