Cifra Club

Aprenda

The House Jack Built

Metallica

Cifra: Principal (violão e guitarra)
tom: G
Intro:
(1)
|----------------|
|----------------|
|----------------|
|--------3-----5-|
|------3-----5---|
|---1/----3------|
(2)
|---------|-------------------------|
|---------|-------------------------|
|--3/5--7-|---3/5--7--10--12--5--7--|
|---------|-------------------------|
|--1/3--5-|---1/3--5---8--10--3--5--|
|---------|-------------------------|

Verse:
|--------------------------|----------------------|
|--------------------------|----------------------|
|--------------------------|---5--3h5p3p0--2B-----|
|---3--3--3--3--3--3--3--2-|----------------------|
|---3--3--3--3--3--3--3--2-|----------------------|
|---1--1--1--1--1--1--1--0-|----------------------|

|-------------------------------------------------------------------|
|-------------------------------------------------------------------|
|---3----------3-3-------3-3-----3----------3-3---3-3-------3-------|
|---3----------3-3-------3-3-----3----------3-3---3-3-------3-------|
|---1----------1-1-------1-1-----1----------1-1---1-1-------1-------|
|------0--0--0-------0-------0-0-----0--0--0-----0------0--0--------|

Chorus:
|-------------------------------------------------------------------|
|-------------------------------------------------------------------|
|-------------------5----7-----10-------12--------------------------|
|-------3-----5---5----7----10-------10--------5--5-5---------------|
|-----3-----5---3----5----8-------10---------3----3-3---------------|
|---1-----3---------------------------------------------------------|

|-------------------------------------------------------------------|
|-------------------------------------------------------------------|
|-------------------5----7------------------------------------------|
|-------3-----5---5----7----10B--8----------------------------------|
|-----3-----5---3----5-------8---8--8----8--8-----------------------|
|---1-----3-------------------------8----6--6-----------------------|

1st Solo:
|-----------------------------------------|
|---12-----------12----------12-------15--|
|---14B----------14B---------14B--12------|
|-----------------------------------------|
|-----------------------------------------|
|-----------------------------------------|

|---------------------------------|---------------------------------|
|---------------------------------|--13--13------15--15--15--15--15-|
|--16--14H16P14P12---------16B----|--14--14--12--12--12--12--12--12-|
|------------------16--14---------|---------------------------------|
|---------------------------------|---------------------------------|
|---------------------------------|---------------------------------|

Main Solo:
|-------------------------------------------------------------------|
|--12---------------------------------------------------------------|
|--12---------------12h14--------------------12--14--14B-14--------|
|-------14~~~-14p12-------14~~~-14p12--14p12------------------------|
|-------------------------------------------------------------------|
|-------------------------------------------------------------------|

|----------12-------12---------12-------12----12----12----12----12--|
|-------11----11-------11---------11-------11----11----11----11---11|
|---/12----------12--------12--------12-----------------------------|
|-------------------------------------------------------------------|
|-------------------------------------------------------------------|
|-------------------------------------------------------------------|

|-------------------------------------------------------------------|
|------------------------------------------------------------------|
|----------12--15-----------12--12B-------------12--14--14B---------|
|------/14--------14~~~~-14--------------14--14----------------14--|
|-------------------------------------------------------------------|
|-------------------------------------------------------------------|
                          
|----------------------------15B-|----------------|
|--------------------------------|----------------|
|---------------------9----------|--10h12--12B----|
|--------5--5/10---12---12B------|----------------|
|--/7~~~-------------------------|----------------|
|--------------------------------|----------------|
Composição de James Hetfield / Kirk Hammett / Lars Ulrich
Colaboração e revisão:
  • Pedro Rodrigues
385 exibições
    • ½ Tom
    • A
    • Bb
    • B
    • C
    • Db
    • D
    • Eb
    • E
    • F
    • F#
    • G
    • Ab
  • Adicionar à lista

    0 comentários

    Ver todos os comentários

    Conseguiu tocar?

    0 Tocaram 0 Ainda não

    Grave um vídeo tocando The House Jack Built e nos envie!

    00:00 / 00:00
    outros vídeos desta música
    repetir qualidade Automático
    Outros vídeos desta música
    00:00 / 00:00
    Automático

    Cifra Club Pro

    Aproveite o Cifra Club com benefícios exclusivos e sem anúncios
    Cifra Club Pro
    Aproveite o Cifra Club com benefícios exclusivos e sem anúncios
    OK