Cifra Club

Aprenda

Where The Wild Things Are

Metallica

Cifra: Principal (violão e guitarra)
tom: E
tune all guitars down 1/2 step

1)                                         all but  2nd time
eb|-------------------------------------    -------  --------
Bb|-------------------------------------    -------  --------
Gb|--4-4--4-----4----4-----3----3------0    -------  --------
Db|--2-2----2----------2----------2-----    -------  --------
Ab|--3-3------3---3------3---3------3---    -------  -0-3-2-0
Eb|-------------------------------------    -0-3~~0  --------
clean
"So wake up sleepy one."

2a) Kirk           2b) James (right before verse)
Gb|---------------  --------------
Db|--9-9-9-9-----9  --------------
Ab|--8-8-8-8-----7  -5-5-5-5-----2
Eb|----------0-0--  -3-3-3-3-0-0-0
           pm..     .............

3)
Gb|-------------------41
Db|--5-5-5-5-5-5-5-2--52
Ab|--5-5-5-5-5-5-5-2-----
Eb|--3-3-3-3-3-3-3p0-----
   pm..........
verse
"Steal dreams and give to you."

4)
Gb|--------------------       -----------4-4-----
Db|--7-7--6-6---------- twicE|-7-7--6-6--2-2--5-5
Ab|--5-5--4-4--8-8--5-5 then  -5-5--4-4-------3-3
Eb|------------6-6--3-3       -------------------
chorus
Composição de James Hetfield / Jason Newsted / Lars Ulrich
Colaboração e revisão:
  • Jorge Miguel
6.006 exibições
    • ½ Tom
    • A
    • Bb
    • B
    • C
    • Db
    • D
    • Eb
    • E
    • F
    • F#
    • G
    • Ab
  • Adicionar à lista

    0 comentários

    Ver todos os comentários

    Conseguiu tocar?

    0 Tocaram 0 Ainda não

    Grave um vídeo tocando Where The Wild Things Are e nos envie!

    00:00 / 00:00
    outros vídeos desta música
    repetir qualidade Automático
    Outros vídeos desta música
    00:00 / 00:00
    Automático

    Cifra Club Pro

    Aproveite o Cifra Club com benefícios exclusivos e sem anúncios
    Cifra Club Pro
    Aproveite o Cifra Club com benefícios exclusivos e sem anúncios
    OK