Cifra Club

Aprenda

Encontro

Oficina G3

Cifra: Principal (violão e guitarra)
tom: G
Afinação: D A D G A D

[Intro] Dm9  Bb11  F9  G9
        Dm9  Bb11  F9  G9
        Dm9  Bb11  F9  G9
        Dm9  Bb11  F9  G9

D            Bb9     G9     D
O que vou dizer sem ter a quem dizer?
             Bb9     G9    Bm7
O que posso ter sem nada oferecer?
    D            Bb9    G9
Te vendo ao meu lado entendo

( Dm9  Bb11  F9  G9 )

D            Bb9     G9     D
O que vou dizer sem ter a quem dizer?
             Bb9     G9    Bm7
O que posso ter sem nada oferecer?
    D            Bb9    G9
Te vendo ao meu lado entendo

[Refrão]
 
Bm7             G9          D           A/C#
   Que neste encontro não existe mais o eu
        Bm7        G9
Passa a existir o nós 
     D              A/C#      
Dividindo o que não é mais meu

[Riff]

   D                     A/C#
E|----------------------------------------|
B|-----------------------5----------------|
G|----12---11---9----7---6----------------|
D|-----------------------7----------------|
A|-10----9----7----5-----4----------------|
E|----------------------------------------|

( Dm9  Bb11  F9  G9 )
( Dm9  Bb11  F9 )

 D          Bb9     G9      D
Como posso ser, se não sou sem você
                      Bb9 G9     Bm7
O pai, o filho e o espírito mostrou
     D           Bb9   G9   Bm7
Que juntos somos um em uma direção
                Bb9   C9
Essa união nos dá sentido

[Refrão]

Bm7           G9          D           A/C#
   E neste encontro não existe mais o eu
        Bm7        G9
Passa a existir o nós
     D              A/C#
Dividindo o que não é mais

[Riff]

   D                     A/C#
E|----------------------------------------|
B|-----------------------5----------------|
G|----12---11---9----7---6----------------|
D|-----------------------7----------------|
A|-10----9----7----5-----4----------------|
E|----------------------------------------|

[Ponte]

Dm7              F         C
E se você partir, leve um pouco de mim
Dm7               F    C
   E plante em seu jardim
Dm7
   Pois o que me deixou
F     C         Dm7          F   C
 Me transformou     e nos aproximou

[Solo] D  A  Bb  G9
       D  A  Bb  G9
       D  A  Bb  G9
       D  A  Bb  G9

E|------------------------------------------------10------------------------------------------------------------------|
B|------8--6----------8--8--------10--10--------------10---13h10----------10------------------------------------------|
G|---7-----------10-----------12-----------12b14------------------12--13-------13--12---10------11---12--14-----------|
D|------------------------------------------------------------------------------------------12------------------------|
A|--------------------------------------------------------------------------------------------------------------------|
E|--------------------------------------------------------------------------------------------------------------------|

E|------------------------------------------------------------------17\13------------------10---13---12--10-----------|
B|-------14b15---14--12--15b17---17b19--15\13---15--13-15--15--13----------17\13--10---13---------------------13---11-|
G|--------------------------------------------------------------------------------------------------------------------|
D|--12----------------------------------------------------------------------------------------------------------------|
A|--------------------------------------------------------------------------------------------------------------------|
E|--------------------------------------------------------------------------------------------------------------------|

E|-10---------------------------9b10--7----------17--19---------17b18---15\20b22--22t---(20)b22~--20--17------20-20b~-|
B|-----13--11-10---7--8-10---------------\20b22----------20b22--------------------------------------------------------|
G|--------------------------7-----------------------------------------------------------------------------------------|
D|--------------------------------------------------------------------------------------------------------------------|
A|--------------------------------------------------------------------------------------------------------------------|
E|--------------------------------------------------------------------------------------------------------------------|

E|-------22-------------17--------------------------------------------------------------------------------------------|
B|--------------------------------15--17\20-------20\15--------15-14--------------------------------------------------|
G|--19---------19--14--------14---------------------------------------------14\12-------12\9--10-9--7-----------------|
D|-------------------------------------------17-----------12--------------------------------------------10p8p7--------|
A|----------------------------------------------------------------------12----------10--------------------------------|
E|--------------------------------------------------------------------------------------------------------------------|

E|-------------------------------------------------------------------------------------------------------10h12h13-17t-|
B|----------------------------------------------------------------------------------------------10h11h13--------------|
G|------------------------------------------7h9h10--9h10h12p10p9-------------9h10h12p10p9h10h12-----------------------|
D|-------------------------7h8h10p8p7h8h10------------------------12h8h10h12------------------------------------------|
A|--10p8p7---7h810p7p8p10---------------------------------------------------------------------------------------------|
E|--------------------------------------------------------------------------------------------------------------------|

E|--/18p17--13p12--10--12--12b13----------------------------------------10--------------10--------------17p13---------|
B|-------------------------------17b18/13--15--15--15b17-----15b17--10------10---13b15------13p10---------------------|
G|-------------------------------------------------------------------------------------------------12-----------------|
D|--------------------------------------------------------------------------------------------------------------------|
A|--------------------------------------------------------------------------------------------------------------------|
E|--------------------------------------------------------------------------------------------------------------------|

E|---------13---------------------------------------------------------------------------------------------------------|
B|--17-13-------17p13------17-13-----------13h15---13~~---------------------------------------------------------------|
G|---------------------14---------14--12------------------------------------------------------------------------------|
D|--------------------------------------------------------------------------------------------------------------------|
A|--------------------------------------------------------------------------------------------------------------------|
E|--------------------------------------------------------------------------------------------------------------------|

[Poesia] Bb9  C9  Dm7  F

Um nó, dois nós
Eu, mais um ou mais, um ser simplesmente
O eu poético do verdadeiro encontro
Nó, no plural, nós
Se o nó é na garganta e um de nós aflito
O outro sossegado, erudito, tem o antídoto
E assim, sucessiva, alternada
E alternativamente, amigos
Do saber, no lazer, no ócio e no labor
Buscando o equilíbrio, temperante
Dás-me que dou todo meu ser
Todo meu querer ser
Todo ouvido, havendo ouvido
E por seus conteúdos movido
Cada indivíduo vai e ver vir ávido dizer
Conte comigo!
Práxis edificante

[Refrão]

Bm7           G9          D           A/C#
   E neste encontro não existe mais o eu
        Bm7        G9
Passa a existir o nós
     D              A/C#
Dividindo o que não é mais

Bm7           G9          D           A/C#
   E neste encontro não existe mais o eu
        Bm7        G9
Passa a existir o nós
     D              A/C#
Dividindo o que não é mais

[Riff]

   D                     A/C#
E|----------------------------------------|
B|-----------------------5----------------|
G|----12---11---9----7---6----------------|
D|-----------------------7----------------|
A|-10----9----7----5-----4----------------|
E|----------------------------------------|

( Dm9  Bb11  F9  G9 )
( Dm9  Bb11  F9  G9 )
( Dm9  Bb11  F9  G9 )
( Dm9  Bb11  F9  G9 )
Composição de Duca Tambasco / Jean Carllos / Juninho Afram / Mauro Henrique
117.145 exibições
    • ½ Tom
    • A
    • Bb
    • B
    • C
    • Db
    • D
    • Eb
    • E
    • F
    • F#
    • G
    • Ab
  • Adicionar à lista

    0 comentários

    Ver todos os comentários
    00:00 / 00:00
    outros vídeos desta música
    repetir qualidade Automático
    Outros vídeos desta música
    00:00 / 00:00
    Automático

    Cifra Club Pro

    Aproveite o Cifra Club com benefícios exclusivos e sem anúncios
    Cifra Club Pro
    Aproveite o Cifra Club com benefícios exclusivos e sem anúncios
    OK