Cifra Club

Encontro

Oficina G3

Cifra: Principal
exibições 100.621
Tom: G
[Afinação Drop D] D A D G B E

[Intro]  

E|-0-0-0--0-0-0--0-0----0-0-0-0---0-0-0-0-0---------|
A|-0-0-0--0-0-0--0-0----0-0-0-0---0-0-0-0-0---------|
G|-5-5-5--7-7-7--10-10--5-5-5-5---7-7-7-7-7---------|
D|-x-x-x--x-x-x--10-10--5-5-5-5---7-7-7-7-7---------|
A|-3-3-3--5-5-5--x-x-3--x-x-x-x---x-x-x-x-x---------|
D|-0-0-0--0-0-0--8-8-3--3-3-3-3---5-5-5-5-5---------|

D            Bb      Gm     D
O que vou dizer sem ter a quem dizer?
D            Bb      Gm      D
O que posso ter sem nada oferecer?
                 Bb     Gm
Te vendo ao meu lado entendo

D            Bb      Gm     D
O que vou dizer sem ter a quem dizer?
D            Bb      Gm      D
O que posso ter sem nada oferecer?
 Bm              Bb     Gm
Te vendo ao meu lado entendo

  Bm         G           D/F#        A9
Que neste encontro não existe mais o eu
        Bm         G        D/F#              A9
Passa a existir o nós, dividindo o que não é mais meu

 D          Bb      Gm      D
Como posso ser, se não sou sem você
D                  Bb     Gm     D
O pai, o filho e o espírito mostrou
  Bm                Bb      Gm     D
Que juntos somos um em uma direção
                Bb      Gm
Essa união nos dá sentido

  Bm         G           D/F#        A9
Que neste encontro não existe mais o eu
        Bm         G        D/F#              A9
Passa a existir o nós, dividindo o que não é mais meu

Dm
E se você partir, leve um pouco de mim
F
E plante em seu jardim

E|---------------------------------------------------|
B|-8--6b---------------------------------------------|
G|--------7----5--7----------------------------------|
D|----------7----------------------------------------|

 C
Pois o que me deixou
 G
Me transformou e nos aproximou

E|--------------------------------------------------|
B|-------6--8b10--6b8~------------------------------|
G|---/7---------------------------------------------|
D|--------------------------------------------------|

[Solo]  D  A  Bb  G

E|------------------------------------------------10------------------------------------------------------------------|
B|------8--6----------8--8--------10--10--------------10---13h10----------10------------------------------------------|
G|---7-----------10-----------12-----------12b14------------------12--13-------13--12---10------11---12--14-----------|
D|------------------------------------------------------------------------------------------12------------------------|
A|--------------------------------------------------------------------------------------------------------------------|
E|--------------------------------------------------------------------------------------------------------------------|

E|------------------------------------------------------------------17\13------------------10---13---12--10-----------|
B|-------14b15---14--12--15b17---17b19--15\13---15--13-15--15--13----------17\13--10---13---------------------13---11-|
G|--------------------------------------------------------------------------------------------------------------------|
D|--12----------------------------------------------------------------------------------------------------------------|
A|--------------------------------------------------------------------------------------------------------------------|
E|--------------------------------------------------------------------------------------------------------------------|

E|-10---------------------------9b10--7----------17--19---------17b18---15\20b22--22t---(20)b22~--20--17------20-20b~-|
B|-----13--11-10---7--8-10---------------\20b22----------20b22--------------------------------------------------------|
G|--------------------------7-----------------------------------------------------------------------------------------|
D|--------------------------------------------------------------------------------------------------------------------|
A|--------------------------------------------------------------------------------------------------------------------|
E|--------------------------------------------------------------------------------------------------------------------|

E|-------22-------------17--------------------------------------------------------------------------------------------|
B|--------------------------------15--17\20-------20\15--------15-14--------------------------------------------------|
G|--19---------19--14--------14---------------------------------------------14\12-------12\9--10-9--7-----------------|
D|-------------------------------------------17-----------12--------------------------------------------10p8p7--------|
A|----------------------------------------------------------------------12----------10--------------------------------|
E|--------------------------------------------------------------------------------------------------------------------|

E|-------------------------------------------------------------------------------------------------------10h12h13-17t-|
B|----------------------------------------------------------------------------------------------10h11h13--------------|
G|------------------------------------------7h9h10--9h10h12p10p9-------------9h10h12p10p9h10h12-----------------------|
D|-------------------------7h8h10p8p7h8h10------------------------12h8h10h12------------------------------------------|
A|--10p8p7---7h810p7p8p10---------------------------------------------------------------------------------------------|
E|--------------------------------------------------------------------------------------------------------------------|

E|--/18p17--13p12--10--12--12b13----------------------------------------10--------------10--------------17p13---------|
B|-------------------------------17b18/13--15--15--15b17-----15b17--10------10---13b15------13p10---------------------|
G|-------------------------------------------------------------------------------------------------12-----------------|
D|--------------------------------------------------------------------------------------------------------------------|
A|--------------------------------------------------------------------------------------------------------------------|
E|--------------------------------------------------------------------------------------------------------------------|

E|---------13---------------------------------------------------------------------------------------------------------|
B|--17-13-------17p13------17-13-----------13h15---13~~---------------------------------------------------------------|
G|---------------------14---------14--12------------------------------------------------------------------------------|
D|--------------------------------------------------------------------------------------------------------------------|
A|--------------------------------------------------------------------------------------------------------------------|
E|--------------------------------------------------------------------------------------------------------------------|

[Poesia]  Bb  C  Dm  C

E|-x--x--x--x---x---x---x---x---x---------------------|
B|-x--x--x--x---x---x---x---x---x---------------------|
G|-x--x--x--x---x---x---x---x---x---------------------|
D|-10-10-9--9---10--15--14--10--12--3-5-5-5-3-3-5-7-8-|
A|-8--8--10-10--10--0---0---0---0---3-----------------|
D|-8--8--10-10--10--0---0---0---0---3-----------------|

Um nó, dois nós
Eu, mais um ou mais, um ser simplesmente
O eu poético do verdadeiro encontro
Nó, no plural, nós
Se o nó é na garganta e um de nós aflito
O outro sossegado, erudito, tem o antídoto
E assim, sucessiva, alternada
E alternativamente, amigos
Do saber, no lazer, no ócio e no labor
Buscando o equilíbrio, temperante
Dás-me que dou-to todo meu ser
Todo meu querer ser
Todo ouvido, havendo ouvido
E por seus conteúdos movido
Cada indivíduo vai e ver vir ávido dizer...
Conte comigo!

B  C  Dm
A9

  Bm         G           D/F#        A9
Que neste encontro não existe mais o eu
        Bm         G        D/F#              A9
Passa a existir o nós, dividindo o que não é mais meu
Bm         G           D/F#        A9
E neste encontro não existe mais o eu
        Bm         G        D/F#              A9
Passa a existir o nós, dividindo o que não é mais meu

0 comentários

    mostrar mais comentários

    Conseguiu tocar?

    15tocaram0ainda não

    Grave um vídeo tocando Encontro e mande pra gente!

    00:00 / 00:00
    outros vídeos desta música
    repetirqualidadeautomática
    Outro vídeos desta música
      00:00 / 00:00
      automática
      OK