Cifra Club

Aprenda

Whore Street Gone

Scars on Broadway

Cifra: Principal (violão e guitarra)
tom: C
Afinação: Drop C

Mais uma musica do SOB ai.

Intro Part 1
Clean
Use Delay                                   
Play The Next 2 Bars 4 Times
      H        Q    Q       H         Q    Q     
D#|---------------------|----------------------|
A#|---------------------|----------------------|
F#|---------------------|----------------------|
C#|---------------------|-----------10----7----|
G#|-----------7----8----|----------------------|
C#|--0------------------|--0-------------------|

  H        Q    Q       H         Q    Q     
---------------------|----------------------|
---------------------|----------------------|
---------------------|----------------------|
---------------------|----------------------|
-----------7----8----|-----------10----7----|
--0------------------|--0-------------------|
Intro Part 2
Distortion
Play The Next 4 Bars Twice
  H        Q    Q     
---------------------|
---------------------|
---------------------|
--0--------1----8----|
--0--------1----8----|
--0--------1----8----|


  On The Concert Video Daron Pick Scrapes Here And It Sounds Wierdly Cool   
  S                                                  
-----------------------------------------------------
-----------------------------------------------------
-----------------------------------------------------
--7-------------------------------------------------
--7-------------------------------------------------
--7------------------------------------------------

  H        Q    Q     
---------------------|
---------------------|
---------------------|
--8--------5----0----|
--8--------5----0----|
--8--------5----0----|

  S  
--------------------------------------------------------
--------------------------------------------------------
--------------------------------------------------------
--7-----------------------------------------------------
--7-----------------------------------------------------
--7-----------------------------------------------------

VERSE
Clean
S Means Shift Slide Which Is Sliding And Then Picking The Note
  Q    E  Q    E  S S E      Q    E  Q    E  S S E Play The Next Two Bars 5 Times    
--------------------------|--------------------------|
--------------------------|--------------------------|
--------------------------|--------------------------|
-------0----------0-------|-------3----------3-------|
----------0---------0-----|----------3---------3-----|
--0------------0------0S--|--3------------3------3S--|

  Q    E  Q    E  S S E      Q    E  Q    E  S S E   
--------------------------|-------------------------|
--------------------------|-------------------------|
--------------------------|-------------------------|
-------7----------7-------|-------8----------8------|
----------7---------7-----|----------8---------8----|
--7------------7------7S--|--8------------8------8--|

Chorus
Distortion
These Are Octaves Mute The Middle String With Your Index Finger
    Q    S E  S Q     Q       Q    E  S E  E  S E  E   Play The Next Three Bars 5 Times
|--------------------------|--------------------------|
|--------------------------|--------------------------|
|*--7----7-7--7-9----10----|--5----5--5-5--5--5-5--5--|
|*--x----x-x--x-x-----x----|--x----x--x-x--x--x-x--x--|
|---5----5-5--5-7-----8----|--3----3--3-3--3--3-3--3--|
|--------------------------|--------------------------|

  Q    E  S E  E  S E  E   
--------------------------|
--------------------------|
--9----9--9-9--9--9-9--9--|
--x----x--x-x--x--x-x--x--|
--7----7--7-7--7--7-7--7--|
--------------------------|

   Q     E   S  E   E   S  E   E  
-----------------------------------||
-----------------------------------||
--10----10--10-10--10--10-10--10--*||
---x-----x---x--x---x---x--x---x--*||
---8-----8---8--8---8---8--8---8---||
-----------------------------------||


  SOLO
LIGHTER DISTORTION
P Is Pulloff 
H Is Hammer On
TP IS Tremolo Picking
BR Means Bend Then Release

  Q    Q    S  S E  S  S E   
--8----8----8p-6-5--5h-6-5--|
----------------------------|
----------------------------|
----------------------------|

----------------------------|
----------------------------|

  Q    E  S E  S E  S E  Q    S S H         
--5----5--5-5--5-5--5-5---|--6------5-3-3--------|
---------------------------|-----------------------|
---------------------------|-----------------------|
---------------------------|-----------------------|
---------------------------|-----------------------|
---------------------------|-----------------------|

  Q    Q    E  E  E  E   
--6----6----6--6--6--6--|
------------------------|
------------------------|
------------------------|
------------------------|
------------------------|

Tremolo Pick
The 8-12 times
The 10-8 Times
The Last 3-2 Times
And All The Rest 1 Times 
Pick Really Fast

  TP       TP   TP TP TP TP TP TP TP TP TP TP TP  
  Q    E   Q    T  T  T  T  T  T  T  T  T  T  S   
--8------10----8--6--8--6--5--8--6--5--6--5--3--|
-------------------------------------------------|
-------------------------------------------------|
-------------------------------------------------|
-------------------------------------------------|
-------------------------------------------------|

  E  E  S S H          E                           
--3--3--3-3-5br-----------|-----------|-----------|
--------------------------|-----------|-----------|
--------------------------|-----------|-----------|
--------------------------|-----------|-----------|
--------------------------|-----------|-----------|
--------------------------|-----------|-----------|
OUTRO
Gradually Slow Down
  Q    E  Q    E  S S E      Q    E  Q    E  S S E    
--------------------------|--------------------------|
--------------------------|--------------------------|
--------------------------|--------------------------|
-------0----------0-------|-------3----------3-------|
----------0---------0-----|----------3---------3-----|
--0------------0------0S--|--3------------3------3S--|

  Q    E  Q    E  S S E      Q    E  Q    E  S S E   
--------------------------|-------------------------|
--------------------------|-------------------------|
--------------------------|-------------------------|
-------7----------7-------|-------8----------8------|
----------7---------7-----|----------8---------8----|
--7------------7------7S--|--8------------8------8--|

Strum Slowly
  ^                  
  W                  
-------------------||
-------------------||
-------------------||
--0----------------||
--0----------------||
--0----------------||
Composição de Daron Malakian
Colaboração e revisão:
  • Henrique Lyra
2.507 exibições
    • ½ Tom
    • A
    • Bb
    • B
    • C
    • Db
    • D
    • Eb
    • E
    • F
    • F#
    • G
    • Ab
  • Adicionar à lista

    0 comentários

    Ver todos os comentários

    Conseguiu tocar?

    0 Tocaram 0 Ainda não

    Grave um vídeo tocando Whore Street Gone e nos envie!

    00:00 / 00:00
    Outros vídeos desta música
    Repetir Qualidade Automático
    Outros vídeos desta música
    00:00 / 00:00
    Automático

    Cifra Club Pro

    Aproveite o Cifra Club com benefícios exclusivos e sem anúncios
    Cifra Club Pro
    Aproveite o Cifra Club com benefícios exclusivos e sem anúncios
    OK