Cifra Club

Nostalgia

Vivendo do Ócio

Tab de baixo: Principal
[Intro]

G|------------------------------------------------------------------------------|
D|------------------------------------------------------------------------------|
A|------------3---5---5---5-----5b6r5---3---------------------------------------|  
E|---3---5----------------------------------5---5---5---------------------------|

[Verso]

G|---------------------------------------------------|
0|---------------------------------------------------|
A|--------------3/5--5--5\3--------------------------|
E|-----3---5------------------5---5----3-------------|

G|------------------------------------------------------------------------------|
D|------------------------------------------------------------------------------|
A|------------3---5---5---5-----5b6r5---3---------------------------------------| 
E|---3---5----------------------------------5---5---5---------------------------|
   
G|---------------------------------------------------|
D|---------------------------------------------------|
A|--------------3----5----0----5---0---5---0-0-0-0-0-|
E|-----3----5----------------------------------------|

[Refrão]

G|---------------------------------------------------|
D|---------------------------------------------------|
A|---------------------------------------------------|
E|---1-1-1-1-1-1-1-1----0----5-5-5-5-5-5-5-5---------|

[Final]

G|---------------------------------------------------|
D|---------------------------------------------------|
A|---------------------------------------------------|
E|---1----0----5-------------------------------------|
00:00 / 00:00
Outros vídeos desta música
Repetir
Outros vídeos desta música
Composição de Luca Bori
Colaboração e revisão:
  • Geferson Rick
  • alan barcelos
1.080 exibições

0 comentários

Ver todos os comentários

Entre para oCifra Club PRO

Tenha acesso a benefícios exclusivos no App e no Site

  • Chega de anúncios

  • Prioridade de compra em lançamentos

  • Mais recursos no app do Afinador

  • Atendimento Prioritário

  • Descontos nos produtos Cifra Club

  • Ajude a produzir mais conteúdo

00:00 / 00:00

Cifra Club Pro

Aproveite o Cifra Club com benefícios exclusivos e sem anúncios
Cifra Club Pro
Aproveite o Cifra Club com benefícios exclusivos e sem anúncios
OK