Cifra Club

By Myself

Linkin Park

Tab de baixo: Principal
exibições 5.033
5 Strings remember

Intro
G|---------------|
D|---------------|
A|---------------|[4 Times]
E|--4-4----------|
B|-------3-3-3-3-|

Verse1
G|---------------------|
D|---------------------|
A|---------------------|
E|----------4----------|
B|--3-3-3-3------------|


Pre-Chorus
G|------------------|
D|------------------|
A|------------------|[4 Times]
E|-----------4-4----|
B|--3-3-3-3---------|

Chorus 
G|----------|-----------------------------|
D|----------|-----------------------------|
A|----------|-----------------------------|[4 Times]
E|----------|--4--------------------------| 
B|--3-3-3-3-|--------5-5-X-X-X-2-2-X-X-X--|
Final bar only ^

Verse2
G|---------|
D|---------|
A|---------|
E|---4-----|
B|---------|

Pre-Chorus[4 Times]

chorus 

Rest

Intro [8 Times]

Chorus  






_______________________________________________________
Contribuição: Eduardo Soares Nunes(mrnirvana@bol.com.br)
Composição: Linkin Park

0 comentários

    mostrar mais comentários

    Conseguiu tocar?

    0tocaram0ainda não

    Grave um vídeo tocando By Myself e mande pra gente!

    00:00 / 00:00
    outros vídeos desta música
    repetirqualidadeautomática
    Outro vídeos desta música
      00:00 / 00:00
      automática
      OK