Cifra Club

Mystic Reptile

Millencolin

Cifra: Principal (violão e guitarra)
tom: D
Intro:

e|--------------|
B|-----6--------|
G|--7--5--------|  (4 vezes)
D|--7--x--8--7--|
A|--5--5--8--7--|
E|--------6--5--|

Solo 1: (D, A)

e|------------------------------------------------
B|------------------------------------------------
G|--7-7-7-7-7-10-9-10-7-7-7-7-7-10-9-10-7-7-7-7-7-
D|------------------------------------------------
A|------------------------------------------------
E|------------------------------------------------

e|----------------------------|
B|----------------------------|
G|-10-9-10--------------9-10--| (2 vezes)
D|---------7-7-7-7-7-10-------|
A|----------------------------|
E|----------------------------|

Depois das duas vezes fica só a guitarra fazendo esse solinho:

e|-----------------------|
B|-----------------------|
G|--7-7-7-7-10-10-9-10-7-|
D|-----------------------|
A|-----------------------|
E|-----------------------|

Riff 1: (abafando e soltando muito rápido)
e|-------------------------------------------------|
B|-------------------------------------------------|
G|--7--7-7-7-7-7-7--7--7-7-7-7-7-7--7--7-7-7-7-7-7-|
D|--7--7-7-7-7-7-7--7--7-7-7-7-7-7--7--7-7-7-7-7-7-|
A|--5--5-5-5-5-5-5--5--5-5-5-5-5-5--5--5-5-5-5-5-5-|
E|-------------------------------------------------|

Verso 1: (abafando rápido e soltando no D)
         (*) abafado
e|-------------------------------------------------|
B|---------------------------------*-*--*----------|
G|--7--7-7-7-7-7-7--7--7-7-7-7-7-7-10-9--7---------|
D|--7--7-7-7-7-7-7--7--7-7-7-7-7-7-10-9--7---8--7--|
A|--5--5-5-5-5-5-5--5--5-5-5-5-5-5-8--7--5---8--7--|
E|-------------------------------------------6--5--|
    You say that most things in life is for free
    but I doubt you can be 

e|-------------------------------------------------|
B|----------------------------------*-*--*---------|
G|--7--7-7-7-7-7-7--7--7-7-7-7-7-7-10-9--7---------|
D|--7--7-7-7-7-7-7--7--7-7-7-7-7-7-10-9--7---8--7--|
A|--5--5-5-5-5-5-5--5--5-5-5-5-5-5-8--7--5---8--7--|
E|-------------------------------------------6--5--|
           so stupid that you never see

e|------------------------------------------------|
B|------------------------------------------------|
g|--7---------------------------------------------|
D|--7-(16x)--------------------8-----------7------|
A|--5--------------------------8-(8x)------7-(8x)-|
E|-----------------------------6-----------5------|
    I say that you and I will never be the same

e|-------------------------------------------------|
B|-------------------------------------------------|
g|--7----------------------------------------------|
D|--7-(16x)----------------8----------------7------|
A|--5----------------------8-(8x)-----------7-(8x)-|
E|-------------------------6----------------5------|
    but you you never listen, never listen to what
    I have to say

No final das duas ultimas partes ele faz assim e começa o outro verso:
e|-------------|
B|-------------|
G|-------------|
D|-------------|
A|--8-8-7-/-3--|
E|-------------|

Pré refrão: (abafando e soltando muito rápido o A#)
e|---------------------------------------------
B|---------------------------------------------
G|--------------------------7-----9--10-9-/-15-
D|--8-----------------------7-----x--x--x-/--x-
A|--8-----------------------5-----7--8--7-/-13-
E|--6------------------------------------------
     so take my piece of advice

e|-------------------------------------------
B|-------------------------------------------
G|-10-9-10-12-10-9-------12-10-9-10-9--------
D|-----------------10-----------------10-12--
A|-------------------------------------------
E|-------------------------------------------
   always         be nice

Refrão:(D, A#, C) (2 vezes)
e|-----------------------------------------
B|-----------------------------------------
G|--10-9-10-10-/-12--10--9-----------------
D|-------------------------10-/-12-/10-10--
A|-----------------------------------------
E|-----------------------------------------

e|-----------------------|
B|-----------------------|
G|-12-10-9-10-9----------|
D|--------------10-12----|
A|-----------------------|
E|-----------------------|

Segura no A abafado:
e|------------------------|
B|------------------------|
G|------------------------|
D|--7-7-7-7-7-7-7-7-7-7-7-|
A|--7-7-7-7-7-7-7-7-7-7-7-|
E|--5-5-5-5-5-5-5-5-5-5-5-|

Solo 1 (2 vezes) e o mesmo solinho depois.

Verso 2 (do mesmo jeito do verso 1).

Pré refrão.

Ponte:

A#5 (pm)          A5 (pm)
I never asked you to 
              D5 (pm)
ever be with me
                      C5 (pm) 
I hope that you can see
                          A#5
what you have changed me to
                   A5
I'll never smile again
                    D5
I'll never talk to you
                     C5
I hope that you can see
                       A#5
that I don´t want you here 
                       A5  
that I don´t want you here 

that I don't want you...

Solo 2(quando ele fala: "that I don't want you here"):
e|-------------------------------------------------|
B|-------------------------------------------------|
G|-------10-9-10-12-10-9--------12-10-9-10-9-------|
D|--8---------------------10-----------------10-12-|
A|-------------------------------------------------|
E|-------------------------------------------------|

Refrão(2 vezes)

Final(abafado, só o último acorde é solto):
e|----------------------------|
B|----------------------------|
G|----------------------------|
D|--7-7-5-5-5-5-5-5-7-7-7-7-7-|
A|--5-5-3-3-2-2-3-3-5-5-5-5-5-|
E|----------------------------|

Letra:

You say that most things in life is for free
but I doubt you can be so stupid that you never see
I say that you and I will never be the same
but you you never listen to what I have to say

so take my piece of advice
always be nice

And you always said I'm sorry,
I wonder why you always felt so sorry

You always lie and never do talk clean 
you say that I am such afake
I say that you and I will never be the same 
but you, you never listen, never listen to what I have to say

so take my piece of advice
always be nice

And you always said I'm sorry,
I wonder why you always felt so sorry

I never asked you to 
ever be with me 
I hope that you can see
what you have changed me to 
I'll never smile again
I'll never talk to you
I hope that you can see
that I don´t want you here 
that I don't want you here
that I don't want you...

And you never said I'm sorry,
I wonder why you never said I'm sorry
Composição de Mathias Färm / Millencolin
Colaboração e revisão:
  • Matheus Collyer
1.061 exibições
    • ½ Tom
    • A
    • Bb
    • B
    • C
    • Db
    • D
    • Eb
    • E
    • F
    • F#
    • G
    • Ab
  • Adicionar à lista

    0 comentários

    Ver todos os comentários

    Conseguiu tocar?

    0 Tocaram 0 Ainda não

    Grave um vídeo tocando Mystic Reptile e nos envie!

    00:00 / 00:00
    Outros vídeos desta música
    Repetir Qualidade Automático
    Outros vídeos desta música
    00:00 / 00:00
    Automático

    Cifra Club Pro

    Aproveite o Cifra Club com benefícios exclusivos e sem anúncios
    Cifra Club Pro
    Aproveite o Cifra Club com benefícios exclusivos e sem anúncios
    OK