Cifra Club

Aprenda

See you on the other side

Ozzy Osbourne

Cifra: Principal (violão e guitarra)
tom: G
Tirado por Fábio "Cabelo" - banda DANUTS!

             G                         Em
|--0--------|-------------------------|---------------------------|
|----3------|-------------------------|---------------------------|
|------0----|-------------------0-----|---------------------------|
|--------4--|---0-----2-----4-----0---|---0-----2------4----0--H--|
|-----------|----2-----2-----2--------|----2-----2------2-----0^2-|
|-----------|-3---3-----3-----3-------|-0---0-----0-----0---------|
                    (2x)
      


(Essa parte com palm-mute)

       C
|--------------------------|
|--------------------------|
|------------------------0-|
|----0------2------4-------|
|-3---3------3------3------|
|------3------3------3-----|

GUITAR SOLO: (Afinar a guitarra 1/2 tom abaixo do diapazão) 

D#|--------------------------------------------------------------|
A#|----------------------8~---------------8~---15--15------------|
F#|------------7-7---7h9----------7---7h9------14b(16)rb(14)p12--|
C#|------5-7/9-----9----------7/9---9----------------------------|
G#|--5h7---------------------------------------------------------|
D#|--------------------------------------------------------------|

  |--------------------------------------------------------------|
  |----------------------------15b--15~--------------------------|
  |--14~--14--12~--------12-------------(16)rb-12----14b(16)rb\/\|
  |----------------12-14----14--------------------14-------------|
  |--------------------------------------------------------------|
  |--------------------------------------------------------------|

  
  |-------------------15-12-10-----------------------------------|
  |----------------------------12-10-----------------------------|
  |--(16)rb(14)-12-------------------12-9\7----------------------|
  |----------------14-----------------------9\7-5---5-------5----|
  |-----------------------------------------------7---7-5h7------|
  |--------------------------------------------------------------|

  |-----------------------10--17b15----17b15--------15--/20~-----|
  |--------------8----10b-----------17--------15h17--------------|
  |------7---7h9-------------------------------------------------|
  |--7h9---9-----------------------------------------------------|
  |--------------------------------------------------------------|
  |--------------------------------------------------------------|

  |--19p-17------------------------------------------------------|
  |---------18b----18-15-----------------------------------------|
  |----------------------17b(19)rb(17)p15------------------------|
  |---------------------------------------17~--------------------|
  |--------------------------------------------------------------|
  |--------------------------------------------------------------|

  b   = full bend
  rb  = release bend
  h   = hammer on
  p   = pull off
  /   = slide up
  \/\ = subir e descer o bend várias vezes.
  ~   = vibrato

|---------------------------------------------------------------------|
|Quando ele começa a cantar antes do refrão alterne entre (G - D - Am)|
|                                                                     |         
|Quando ele começa a falar "See you on the other side..." (G - D - E) | 
|---------------------------------------------------------------------|

A música fica altenando nisso!

Espero que gostem!
Composição de Lemmy Kilmister / Ozzy Osbourne / Zakk Wylde
Colaboração e revisão:
  • Romulo Teixeira
18.499 exibições
  • Simplificar cifra
    • ½ Tom
    • A
    • Bb
    • B
    • C
    • Db
    • D
    • Eb
    • E
    • F
    • F#
    • G
    • Ab
  • Adicionar à lista

    0 comentários

    Ver todos os comentários

    Conseguiu tocar?

    1 Tocaram 0 Ainda não

    Grave um vídeo tocando See you on the other side e nos envie!

    00:00 / 00:00
    outros vídeos desta música
    repetir qualidade Automático
    Outros vídeos desta música
    00:00 / 00:00
    Automático

    Cifra Club Pro

    Aproveite o Cifra Club com benefícios exclusivos e sem anúncios
    Cifra Club Pro
    Aproveite o Cifra Club com benefícios exclusivos e sem anúncios
    OK