Cifra Club

Ego Painted Grey Intro

Angra

Tab de baixo: Principal
exibições 573
G------------------|-----------------|--------------------|--------------------|
D------------------|-----------------|------0----2---0----|------0----2---0----|
A---2-5---5---4----|-4---2---2---4---|-2--4----2---4----2-|-2--4----2---4----2-|
E-0-----0---0---0--|---0---0---0---0-|--------------------|--------------------|

G------------------|-----------------|------------------|----------------------|
D------5---5---4---|-----2---2---4---|------------------|----------------------|
A----5-------------|-----------------|-----5---5--------|---7--(b9)-7--(b9)-7---7--| 
E--3-----3---3---3-|-0-3---2---2---3-|-0-3---3---3--0--3|-7---------------7----|

G------------------|-----------------|--------------------|--------------------|
D------------------|-----------------|------0----2---0----|------0----2---0----|
A---2-5---5---4----|-4---2---2---4---|-2--4----2---4----2-|-2--4----2---4----2-|
E-0-----0---0---0--|---0---0---0---0-|--------------------|--------------------|

G------------------|-----------------|-----------------|-----------------------|
D------5---4---4---|-----5---5---4---|-----2---2---4---|-----------------------|
A----5-------------|---5-------------|-----------------|------5----5-----------|
E--3-----3---3---3-|-3-----3---3---3-|-0-3---2---2---3-|-0--3----3----3--0--3--|

G-----------------------|----------------|-----------------|-----------------|
D-----------------------|----------------|-----------------|-----------------|
A------5----5-----------|-----5---5------|-----4---4-------|-----4---4-------|
E-0--3----3----3--0--3--|-0-3---3---3-0-3|-0-2---2---2-0-2-|-0-2---2---2-0-2-|

G-----------------|-----------------|-----------------|-----------------|
D-----4---4-------|-----4---4-------|-----------------|-----------------|
A-0-2---2---2-0-2-|-0-2---2---2-0-2-|---0-2-0-2-0---0-|---0-2-0-2-0---0-|
E-----------------|-----------------|-0-----------0---|-0-----------0---|

G-----------------------|----------------|-----------------|-----------------|
D-----------------------|----------------|-----------------|-----------------|
A------5----5-----------|-----5---5------|-----4---4-------|-----4---4-------|
E-0--3----3----3--0--3--|-0-3---3---3-0-3|-0-2---2---2-0-2-|-0-2---2---2-0-2-|

Pausa---
G-16-|
D-16-|
A----|
E----|

This endless torture's building up my rage

G------------------|-----------------|--------------------|--------------------|
D------------------|-----------------|------0----2---0----|------0----2---0----|
A---2-5---5---4----|-4---2---2---4---|-2--4----2---4----2-|-2--4----2---4----2-|
E-0-----0---0---0--|---0---0---0---0-|--------------------|--------------------|

G------------------|-----------------|------------------|----------------------|
D------5---5---4---|-----2---2---4---|------------------|----------------------|
A----5-------------|-----------------|-----5---5--------|---7--(b9)-7--(b9)-7---7--| 
E--3-----3---3---3-|-0-3---2---2---3-|-0-3---3---3--0--3|-7---------------7----|

G------------------|-----------------|--------------------|--------------------|
D------------------|-----------------|------0----2---0----|------0----2---0----|
A---2-5---5---4----|-4---2---2---4---|-2--4----2---4----2-|-2--4----2---4----2-|
E-0-----0---0---0--|---0---0---0---0-|--------------------|--------------------|

G------------------|-----------------|-------4-------|-------------------------|
D------5---4---4---|-----5---5---4---|-----5---------|-------------------------|
A----5-------------|---5-------------|---2-----------|-------------------------|
E--3-----3---3---3-|-3-----3---3---3-|-0-------------|-------------------------|

Aqui entram as guitarras

G---------------|----------------|---------------|---------------------|
D---------------|----------------|---------------|---------------------|
A-2-----2---2---|-4-2----2---2---|---4-2-----2---|-2-----2-----2---2---|
E---2-2---2---2-|-----2-2--2-----|-2-----2-2---2-|---2-2---2-2---2---2-|

G---------------|----------------|---------------|---------------------|
D---------------|----------------|---------------|---------------------|
A-2-----2---2---|-4-2----2---2---|---4-2-----2---|-2-----2-----2---2---|
E---2-2---2---2-|-----2-2--2-----|-2-----2-2---2-|---2-2---2-2---2---2-|

G---------------|----------------|---------------|---------------------|
D---------------|----------------|---------------|---------------------|
A-2-----2---2---|-4-2----2---2---|---4-2-----2---|-2-----2-----2---2---|
E---2-2---2---2-|-----2-2--2-----|-2-----2-2---2-|---2-2---2-2---2---2-|

G---------------|----------------|---------------|---------------------|
D---------------|----------------|---------------|---------------------|
A-2-----2---2---|-4-2----2---2---|---4-2-----2---|-2-----2-----2---2---|
E---2-2---2---2-|-----2-2--2-----|-2-----2-2---2-|---2-2---2-2---2---2-|

G----------------------|---------------------|---------------|
D----------------------|---------------------|---------------|
A----------------------|---------------------|-----10--10----|
E-7--7----7--7----7--7-|7--7----7--7----7--7-|-7-7--------10-|

G----------------------|---------------------|---------------------|
D----------------------|---------------------|---------------------|
A----------------------|---------------------|-----10--10-10-10----|
E-7--7----7--7----7--7-|7--7----7--7----7--7-|-7-7--------------10-|

G----------------------|---|----------------------|---|----------------------|
D----------------------|---|----------------------|---|----------------------|
A-2--2----2--2----2--2-|---|-2--2----2--2----2--2-|---|-2--2----2--2----2--2-|
E----------------------|---|----------------------|---|----------------------|

G---------------------|-------------------|-------------------|
D----------------4--5-|-------------------|-------------------|
A-2-2-2--2--2--2------|-2--2---------2--2-|-2-2-2--2--2--2--5-|
E---------------------|-------------------|-------------------|

G----------------------|---|----------------------|---------------|
D----------------------|---|----------------------|---------------|
A-2--2----2--2----2--2-|---|-2--2----2--2----2--2-|-2-2-------2-2-|
E----------------------|---|----------------------|---------------|

G---------------------|---------------|---------------------|
D---------------------|---------------|---------------------|
A-2-2-2---------2-2-2-|-2-2-2---2---2-|5---5---5---5---5---5|
E---------------------|-------2---2---|---------------------|

G---------|--------------------------------|---------------|----------------|
D---------|--------------------------------|---------------|----------------|
A---------|--------------------------------|-2---2----2---2|-0---0----0---0-|
E-2--2--2-|-3-----2--0--0----0--0-----0--0-|---------------|----------------|

G------------------------------------|------------------------|------------------------------------|
D------------------------------------|------------------------|------------------------------------|
A------------------------------------|-2--2---2--2--0--0--0--0|------------------------------------|
E-3----3----3----3----3----3---2---2-|------------------------|-3----3----3----3----3----3---2---2-|

G------------------|-----------------|--------------------|--------------------|
D------------------|-----------------|------0----2---0----|------0----2---0----|
A---2-5---5---4----|-4---2---2---4---|-2--4----2---4----2-|-2--4----2---4----2-|
E-0-----0---0---0--|---0---0---0---0-|--------------------|--------------------|
							|Início do solo
G------------------|-----------------|------------------|--------------------|----------------|
D------5---4---4---|-----5---5---4---|-----2---2---4----|--------------------|----------------|
A----5-------------|---5-------------|------------------|-0-2------2---------|-0-2------2---0-|
E--3-----3---3---3-|-3-----3---3---3-|-0-3---2---2---3-0|-----2-2----2--2--2-|-----2--0---2---|

G--------------|------------------|----------------|--|--------------|--------------|
D--------------|------------------|----------------|--|--------------|--------------|
A-0---0---0---0|-0-2-----2--------|-0-2------2---0-|--|-2-5--4--0--0-|-3-5------5---|
E--------------|-----2-2---2--2--2|-----2--0---2---|--|--------------|-----5-5----55|

G---------------|--------------------------------------|--------------|--------------|
D---------------|--------------------------------------|--------------|--------------|
A-3-5-----3---3-|--------------------------------------|-3-5-----5----|-3-5-----3---3|
E-----5-5---3---|0-0-1-0-0-0-1-0-0-0-1-0-0-0-0-1-0-0-0-|-----5-5---5-5|-----5-5---3--|

G-----------------------------|-----------------------------|-----------------------------|
D-----------------------------|-----------------------------|-----------------------------|
A-5--5-5-5-5-5---5-5-5---5-5-5|-5--5-5-5-5-5---5-5-5---5-5-5|-5--5-5-5-5-5---5-5-5---5-5-5|
E-----------------------------|-----------------------------|-----------------------------|

G-----------------------------|-----------------------------|-----------------------------|
D-----------------------------|-----------------------------|-----------------------------|
A-5--5-5-5-5-5---5-5-5---5-5-5|-5--5-5-5-5-5---5-5-5---5-5-5|-5--5-5-5-5-5---5-5-5---5-5-5|
E-----------------------------|-----------------------------|-----------------------------|

G-----------------------------|-----------------------------|-----------------------------|
D-----------------------------|-----------------------------|-----------------------------|
A-5--5-5-5-5-5---5-5-5---5-5-5|-5--5-5-5-5-5---5-5-5---5-5-5|-----------------------------|
E-----------------------------|-----------------------------|-0-0--5-7-5-0-0--3-5-3-------|

G----------------------|-----------------------------|----------------------|
D----------------------|-----------------------------|----------------------|
A----------------------|-----------------------------|----------------------|
E-0-0--2-3-2--0-0-0-2-0|-0-0--5-7-5-0-0--3-5-3-------|-0-0--2-3-2--0-0-0-2-0|

G-----------------------------|----------------------|------------------------|--------------------|
D-----------------------------|----------------------|------------------------|--------------------|
A-----------------------------|----------------------|------------------------|--------------------|
E-0-0--5-7-5-0-0--3-5-3-----|-0-0--2-3-2--0-0-0-2-0|-0-0--5-7-5-0-0--3-5-3--|-0-0--2-3-2--0-0-0-2-0|

G----------------------------------|----------------------------------|----------------------------|
D----------------------------------|----------------------------------|----------------------------|
A----------------------------------|----------------------------------|----------------------------|
E--2-2---2-2-2-2-2---2-2-2----2-2|--2-2---2-2-2-2-2---2-2-2----2-2|--2-2---2-2-2-2-2---2-2-2----2-2|

G----------------------------------|----------------------------------|----------------------------|
D----------------------------------|----------------------------------|----------------------------|
A----------------------------------|----------------------------------|----------------------------|
E--2-2---2-2-2-2-2---2-2-2----2-2|--2-2---2-2-2-2-2---2-2-2----2-2|--2-2---2-2-2-2-2---2-2-2----2-2|

G----------------------------------|----------------------------------|----------------------------|
D----------------------------------|----------------------------------|----------------------------|
A----------------------------------|----------------------------------|----------------------------|
E--2-2----2-2-2-2-2---2-2-2----2-2|--2-2-----2-2-2-2-2---2-2-2----2-2|--2-2--2-2-2-2-2---2-2-2--2-2|

G----------------------------------|----------------------------------|----------------------------|
D----------------------------------|----------------------------------|----------------------------|
A----------------------------------|----------------------------------|----------------------------|
E--2-2-----2-2-2-2-2---2-2-2----2-2|--2-2-----2-2-2-2-2---2-2-2----2-2|--2-2--2-2-2-2-2---2-2-2---2|

G-----------------------------|----------------------|-----------------------------|---------------|
D-----------------------------|----------------------|-----------------------------|---------------|
A-----------------------------|----------------------|-----------------------------|---------------|
E-0-0--5-7-5-0-0--3-5-3--|-0-0--2-3-2--0-0-0-2-0|-0-0--5-7-5-0-0--3-5-3-----|-0-0--2-3-2--0-0-0-2-0|

G-----------------------------|-----------------------------|
D-----------------------------|-----------------------------|
A-5--5-5-5-5-5---5-5-5---5-5-5|-5--5-5-5-5-5---5-5-5---5-5-5|
E-----------------------------|-----------------------------|
Composição: Kiko Loureiro / Rafael BittencourtColaboração e revisão:
  • Taino Vieira

0 comentários

    mostrar mais comentários

    Conseguiu tocar?

    0tocaram0ainda não

    Grave um vídeo tocando Ego Painted Grey Intro e mande pra gente!

    00:00 / 00:00
    outros vídeos desta música
    repetirqualidadeautomática
    Outro vídeos desta música
      00:00 / 00:00
      automática
      OK